Yesterday Uke tab by The Beatles

Ukulele Tab without chords.

6.2/10
PrintAdd tab to your SongBook

Tablature / Chords (

Font size: A- A A+

Artist: 
Album: 
Year:  1965
Key: unknownTablature (no chords)
this is my first tab so sorry if i screw it up!

-----0-0-0--2-0-2-4-5-7-8-7-5-5------1-5-5-3-1-0---1-0--------
---1-1-1-1--3-----5-------5-5-5------1-6-6-0---0---1-1--------
-----0-0-0--4-----4-------5-5-5------2-5-5-0---0---2-0--------
-0---2-2-2---------------------------3-----0---0-0-3-2-----0--


---0---2-1-0-0---------
-1-1---1-1-1-1---------
---2---2-2-0-0---------
---2-0---3-2-2---------

REPEAT

⇢ Not happy with this tab? View 12 other version(s)

Uke tab by , 13 Mar 2010

Tab comments (1)

Something to say?
Share your strumming patterns, chords or tips to play this tab! ;)
Filter by:
tarantella82 avatar
flag for US(ISO2) (Redwood City)
Really beautiful but very incomplete it seems - also does not work(or needs adjustment) for a dropped G string (however this is true of a lot of uke tab)
02 May 2011
Correction

Top Tabs & Chords by The Beatles, don't miss these songs!

About this song: Yesterday

No information about this song.

Did you cover Yesterday on your Ukulele? Share your work!
Submit a cover