Yesterday Uke tab by The Beatles

Ukulele Tab without chords.

9/10
PrintAdd tab to your SongBook

Tablature / Chords (Full Song)

Font size: A- A A+

Artist: 
Album: 
Year:  1965
Key: unknownTablature (no chords)
A|-----------0--2--4--5--7--8--7--5--5---|
E|--3--1--1-------------------------------|
C|----------------------------------------|
G|----------------------------------------|



A|--5--5--3--1--0----1--0--0--------0---------0--0--|
E|------------------3----------3---1---3----1-------|
C|----------------------------------------2---------|
G|--------------------------------------------------|

A|-----------0--2--4--5--7--8--7--5--5---|
E|--3--1--1-------------------------------|
C|----------------------------------------|
G|----------------------------------------|

A|--5--5--3--1--0----1--0--0--------0---------0--0--|
E|------------------3----------3---1---3----1-------|
C|----------------------------------------2---------|
G|--------------------------------------------------|

A|-0--0--5--7--8--7--5--7--5--3--5--0----|
E|-0--------------------------------------|
C|-1--------------------------------------|
G|-0--------------------------------------|

A|-0--0--5--7--8--7--5--7--5--3--7--8--3--1--0-|
E|-0--------------------------------------------|
C|-1--------------------------------------------|
G|-0--------------------------------------------|

A|-----------0--2--4--5--7--8--7--5--5---|
E|--3--1--1-------------------------------|
C|----------------------------------------|
G|----------------------------------------|

A|--5--5--3--1--0----1--0--0--------0---------0--0--|
E|------------------3----------3---1---3----1-------|
C|----------------------------------------2---------|
G|--------------------------------------------------|

⇢ Not happy with this tab? View 12 other version(s)

Uke tab by , 08 Jul 2013

Tab comments (1)

Something to say?
Share your strumming patterns, chords or tips to play this tab! ;)
Filter by:
duncan3 avatar
flag for US(ISO2) (Norwalk)
Spot on. Needs chords and the accompaniment so it sounds full.
17 Jul 2013
Comment

Top Tabs & Chords by The Beatles, don't miss these songs!

About this song: Yesterday

No information about this song.

Did you cover Yesterday on your Ukulele? Share your work!
Submit a cover