Yellow Submarine Uke tab by The Beatles

Ukulele Tab without chords.

Add tab to your SongBook
Tablature / ChordsFont size: A- A A+

Don't know how to read a tab or a chord ? Check out these uke lessons:

Detailed guide to strumming and picking
How to read uke tabs
Reading chord diagrams

A-0-1-3-0---0---0-0---------0-0----0-1-3-0---0---0-0-----------0-0---3-3-3-3-5------
E-------------1-------1------------------------1--------1---------------------------
C-----------------------2-2-------------------------------2-2-----------------------
G---------0---------0------------0---------0----------0------------0-----------0-0-0

---------------------------3-3-3-3-5-----------------------------------
----------------1-1-1-1-1-------------------------------------1-1-1-1-1
-----------------------------------------------------------------------
0-0---0-0-0-0-0-------------------------0-0-0-0-0---0-0-0-0-0----------

# repeat to your hearts content!

# Please RATE and COMMENT

# good luck and have fun!

 

Tab comments (4)
You must be logged in to join the discussion
or Register

 

YoloUkulele9 avatar
Really fun and easy to play! I love it!
01 Apr 2018
Benpaco avatar
flag for US(ISO2) (California)
I'm a huge beatles fan and this really does the song justice. Great!
23 Jul 2011
Naoy avatar
flag for FR(ISO2) (Tourlaville)
Très bonne tablature, simple et ressemblant à la chanson originale, j'adhère !
21 Jul 2011
Squab34 avatar
flag for US(ISO2) (Spokane)
We all live in a yellow sumberenene?
20 Jul 2011
About this song

"Yellow Submarine" is a 1966 song by The Beatles (credited to the Lennon-McCartney duo, but mainly written by McCartney) and the theme song for the 1968 animated United Artists film based on the music of the Beatles. It is also the title for the soundtrack album to the film, released as part of The Beatles' music catalogue. "Yellow Submarine" was recorded on 26 May and 1 June 1966, at Abbey Road Studios.