Hey Jude Uke tab by The Beatles

Ukulele Tab without chords.

Add tab to your SongBook
Tablature / ChordsFont size: A- A A+

Don't know how to read a tab or a chord ? Check out these uke lessons:

Detailed guide to strumming and picking
How to read uke tabs
Reading chord diagrams

A|-3-0--0-3-5------0-1-8-7-8-3-5-3-1-0-----|
E|------------3--3-------------------------|
C|-----------------------------------------|
G|-----------------------------------------|


A|-3-5-5--5-10-8-7-8-5-3-----0-5-3--3-1-0-------|
E|-----------------------1-3--------------0-1---|
C|----------------------------------------------|
G|----------------------------------------------|

 

Tab comments (3)
You must be logged in to join the discussion
or Register

 

maria_martina avatar
i like it
26 May 2019
emma_22 avatar
???????? I really like it.
22 Jul 2018
duncan3 avatar
flag for US(ISO2) (Norwalk)
Great should add chords
11 May 2013
About this song

"Hey Jude" is a song by the English rock band The Beatles that was recorded in 1968. Originally titled "Hey Jules", the ballad was written by Paul McCartney