Fanfare Uke tab by Final Fantasy 7

Ukulele Tab without chords.

Add tab to your SongBook
Tablature / ChordsFont size: A- A A+

Don't know how to read a tab or a chord ? Check out these uke lessons:

Detailed guide to strumming and picking
How to read uke tabs
Reading chord diagrams

A|-5-5-5-5--1--3--5-3-5-----------------------------------------------|
E|-------------------------5--3--5--3--8-8-7--8-7--7-5--3--2--3-------|
C|---------------------------------------------------------------4----|
G|--------------------------------------------------------------------|


A|----------------------------------------|
E|5--3--5--3--8-8-7--8-7--7-5--3--5--8--10|
C|----------------------------------------|
G|----------------------------------------|

 

Tab comments (1)
You must be logged in to join the discussion
or Register

 

Fordi avatar
flag for US(ISO2) (Lansdale)
This is the simple fanfare from FF1, not the fanfare from FF7.
12 Jun 2018
About this song

No information about this song.