Legend Of Zelda Main Theme Uke tab by Koji Kondo

Ukulele Tab without chords.

9.5/10
PrintAdd tab to your SongBook

Tablature / Chords (Full Song)

Font size: A- A A+

Artist: 
Album:  unknown
Key: unknownTablature (no chords)
Here's my LoZ Main Theme tab with the intro and the second part which
most people leave out, the inspiration goes to this tab:
http://www.ukulele-tabs.com/uke-songs/theme/zelda-uke-tab-12503.html
which, with some tweaks and added notes, gave me the first part of the
main theme after the intro =D

A|------------------------------------------------------------------------|
E|-1---1-1-1-1-1---1---1-1-1-1-1---1---1-1-1-1-1--------------------------|
C|---------------3---------------3---------------0-0-0--0-0-0--0-0-0--0-0-|
G|------------------------------------------------------------------------|

A|-------------0-1-3---3-3-4-6-8---8-8-6-4-6--4-3---|
E|-1-----1-1-3--------------------------------------|
C|---0----------------------------------------------|
G|--------------------------------------------------|

A|-3-3-1-1-3-4--3-1-----1-3--1-------0-2--5--3--|
E|------------------4-4--------4-3-3------------|
C|----------------------------------------------|
G|----------------------------------------------|

A|--------------------------|
E|--------------------------|
C|-0-0-0--0-0-0--0-0-0--0-0-|
G|--------------------------|

A|-------------0-1-3---3-3-4-6-8---11--10--7---|
E|-1-----1-1-3---------------------------------|
C|---0-----------------------------------------|
G|---------------------------------------------|

A|--------8--7-------------8--7-------------4--3-------------0-2--5--3--|
E|-8--9---------8---8--9---------8---5--6---------4---1--3-3------------|
C|----------------------------------------------------------------------|
G|----------------------------------------------------------------------|

A|--------------------------|
E|--------------------------|
C|-0-0-0--0-0-0--0-0-0--0-0-|
G|--------------------------|

And that's pretty much it!

Thanks for checking out my taab, if you like this one then feel free
to check out my others, thanks! Enjoy!
-Clay

Uke tab by , 12 Dec 2010

Tab comments (8)

Something to say?
Share your strumming patterns, chords or tips to play this tab! ;)
Filter by:
Macer avatar
So Good! Will memorize! Thank you for this awesome tab!
28 Aug 2019
Comment
ukeraptor6 avatar
Great tab! I love how I didn't even need to count the repeated 1's and 0's at those points, it just came out of me naturally after hearing this song all my life lol
04 Aug 2019
Comment
SaNecHilL avatar
flag for US(ISO2) (Norfolk Nebraska)
Beautiful! I don't play the games but i absolutely love this song! Thanks!
12 Dec 2018
Comment
NoahDB97 avatar
Very good tab! Its hard but not to hard, And it sounds good
30 Sep 2013
Comment
Willow01 avatar
flag for ES(ISO2) (Granada)
AWESOME!
27 Oct 2012
Comment
sporks avatar
flag for US(ISO2) (SEATTKE)
this is some tough stuff! curse you nintendo!
09 Jun 2012
Comment
rawrzie avatar
thanks(:
18 Apr 2012
Comment
 avatar
Deleted account
Sounds solid to me, then again I started learning Ukulele yesterday.
15 Dec 2010
Comment

Top Tabs & Chords by Koji Kondo, don't miss these songs!

About this song: Legend Of Zelda Main Theme

No information about this song.

Did you cover Legend Of Zelda Main Theme on your Ukulele? Share your work!
Submit a cover