Ode To Joy Uke tab by Beethoven, Ludwig Van

Ukulele Tab without chords.

8.7/10
PrintAdd tab to your SongBook

Tablature / Chords (Full Song)

Font size: A- A A+

Year:  2017
Key: unknownTablature (no chords)
||--2--2--3--5--|--5--3--2--0--|--------0--2--|--2-----0--0--|
||--3-----------|--2-----------|--3--3--------|--3--------2--|
||--2-----------|--2-----------|--2-----------|--2--------2--|
||--0-----------|--2-----------|--0-----------|--------------|


|--2--2--3--5--|--5--3--2--0--|--------0--2--|--0-----------|
|--3-----------|--0-----------|--3--3--------|--2-----3--3--|
|--2-----------|--0-----------|--2-----------|--2--------2--|
|--0-----------|--0-----------|--------------|-----------0--|


|--0--0--2-----|--0--2-3--2-----|--0--2-3--2--0--|-----0-----2--|
|--2-----3--3--|--2-------3--3--|--2-------------|--3-----------|
|--2-----2-----|--2-------2-----|--2-------3-----|--4--1--2-----|
|--------------|----------------|----------------|--------------|


|--2--2--3--5--|--5--3--2--3-0-|--------0--2--|--0-----------||
|--------1-----|--0------------|--3--3--------|--2--3-----3--||
|--------------|--------3------|--2-----------|--2--------2--||
|-----0--0-----|---------------|--0-----------|--------------||

⇢ Not happy with this tab? View 4 other version(s)

Uke tab by , 22 Apr 2009

Tab comments (5)

Something to say?
Share your strumming patterns, chords or tips to play this tab! ;)
Filter by:
ukiyosama avatar
flag for TR(ISO2) (Istanbul)
coochie
30 Apr 2020
Comment
sdsitter avatar
flag for US(ISO2) (San Diego)
So simple and yet so beautiful.
05 Aug 2010
Comment
Cate avatar
flag for US(ISO2) (helena)
awesome!!!
15 Jan 2010
Comment
moonchild avatar
flag for CA(ISO2) (Maple Ridge)
sounds good to me
25 Apr 2009
Comment
kevineisen avatar
reallly good!
24 Apr 2009
Comment

Top Tabs & Chords by Beethoven, Ludwig Van, don't miss these songs!

About this song: Ode To Joy

No information about this song.

Did you cover Ode To Joy on your Ukulele? Share your work!
Submit a cover