Moonlight Sonata Uke tab by Beethoven, Ludwig Van

0 Chords used in the song:

7.3/10
PrintAdd tab to your SongBook

View these chords for the Baritone

Transpose chords:
Chord diagrams:
Pin chords to top while scrolling

Tablature / Chords (Full Song)

Font size: A- A A+

Year:  2007
Key: unknownChords
A-|-0---3-----3-----3-----3|-----3-----3-----3-----3|
E-|-0-----0-----0-----0----|-0-----0-----0-----0----|
C-|------------------------|-7----------------------|
G-|---2-----2-----2-----2--|---2-----2-----2-----2--|

A-|-----3-----3-----5-----5|-----5-----3-----2-----2|
E-|-1-----1-----1-----1----|-0-----0-----0----------|
C-|-5-----------2----------|-4-----------4-----2----|
G-|---2-----2-----3-----3--|---1-----2-----2-----1--|

A-|-0---------3-----3-----3-|------5-----5-----5-----5-|
E-|-0-0---0-----0-----0----0|--0-----0-----0-----0----0|
C-|-------------------------|--------------------------|
G-|-2---2---2-----2-----2---|----4-----4-----4-----4---|

A-|-0---3-----3-----5-----5|-----3-----3-5---2-----2|
E-|-0-----0-----1-----1----|-0-----0-----1-----1----|
C-|-------------2----------|-7-----------7----------|
G-|---2-----2-----2-----2--|---0-----0-----0-----0--|
H
A-|-----3-----3-----3-----3|-6------------------------|
E-|-0-----0-----0-----0----|---3-----3-----3-----3----|
C-|-0----------------------|-------3-----3-----3-----3|
G-|---0-----0-----0-----0--|-5---5-----5-----5-8---5--|

A-|-6----------------------6|-6-----6-----6---3-5---3|
E-|-6-3-----3-----3-----3---|-4-4---3-4--------------|
C-|-------3-----3-----3-----|-------------6-----2----|
G-|-----6-----6-----6-----6-|-----5-----5---2-----2--|

A-|-5-----------3-----3----|------------------------|
E-|-3-3-----3--------------|---3-----3-----2-----2--|
C-|-------2-----3-----3----|-2-----2-----2-----2----|
G-|-----3-----3-8-0-2---0-2|-----3-----3-----2-----2|

A-|-----5-----5------------|-----------------5-----5|
E-|-3-----3-----3-----3----|-3---0-3---0-1-----1----|
C-|-------------4----------|-1-----------2----------|
G-|---4-----4-----3-6---3-6|---2-----2-----2-----2--|

A-|-6-----------5----------|------------------------|
E-|-3-3-----3---4-1-----1--|-5---1-5---1-5---0-5---0|
C-|-------3-----------2----|-9-2-----2-----2-----1--|
G-|-----3-----3-----4-----4|-------------2-----2----|

A-|-------------------------|-0-7-----------------7---|
E-|-----5---5---5---1-5---15|-5---3-5-0-3-5-0-3-5---35|
C-|---5---5---2---2-----2---|-------------------------|
G-|7------------------------|-------------------------|

A-|-------------------------|------------------------|
E-|-5---1-5---1-4-----5---1|-4---0-4---0-4---0-4---0|
C-|-2-2-----2---11-2-4---2--|-8-2-----2-----2---8-2--|
G-|------------------------|------------------------|

A-|-0-----------2----------|-------7---------2-----2|
E-|----5-----5------4-5---2|-4-4-----4---1-4-----4--|
C-|---4-----4---2-2---3----|-4-----------------2----|
G-|55----5------4-------5--|-----4-----4------------|

A-|-----2-----2-----2-----2|-----7-----7-----7-----7|
E-|---4-----4-----4-----4--|-------5-----------5----|
C-|-4-----4-----5-----2----|-4----------------------|
G-|------------------------|-5-5-----5---5-5-----5--|

A-|-3-----------3----------|-2---------2---5-2---5--|
E-|-----0-----0-----0-----0|---1-----1---------1---4|
C-|-4-0-----0-----0-----0--|-4---2------------------|
G-|-------2-----------2----|-------1-----1----------|
s
A-|-3-----3-----3---7-----7|-0-------------3---6-3--|
E-|-----0-----0---5-----5--|-------2-----2---------2|
C-|-4----------------------|-4-3-0---3--------------|
G-|---2-----2---------5----|-----------2-----2------|
A-|-5---2-----5-8-2-5-0-5-8|---5-7-8-7-5-2-5-8-0-5-8|
E-|---4---1-4--------------|-4----------------------|
C-|------------------------|------------------------|
G-|------------------------|------------------------|
A-|---5-7-8-7-5-1-5-8-0-5-8|---5-7-8-7-5-0h3---0h3--|
E-|-4----------------------|-4-----------1----------|
C-|------------------------|------------------------|
G-|------------------------|-----------------2-----2|
H
A-|-2-----2-----2-----2----|-0---------3-----3-----3-|
E-|---1-----1-----0-----0--|---0---0-----0-----0----0|
C-|-2-----------4----------|-------------------------|
G-|-----2-----2-----1-----1|-2---2---2-----2-----2---|

A-|-----5-----5-----5-----5-|-0---3-----3-----5-----5|
E-|-0-----0-----0-----0----0|-0-----0-----1-----1----|
C-|-------------------------|-------------2----------|
G-|---4-----4-----4-----4---|---2-----2-----2-----2--|

A-|-----3-----3-5---2-----2|-----------7-----7-----7-|
E-|-0-----0-----1-----1----|---3---3-----3-----3----3|
C-|-7-----------7----------|-0-----------------------|
G-|---0-----0-----0-----0--|-5---5---5-----5-----5---|
H
A-|-2-5-----5-----5-----5----|---3-----3---2-5---0---7|
E-|-3---1-----1-----1-3---1-3|-3---0-----0-4---0-5----|
C-|--------------------------|-0----------------------|
G-|-0-----0-----0-----0------|-0-----0-------------5--|

A-|-2-----2-----0----------|---5-----5-----5-----5--|
E-|-----0-----0----5-----5-|-6---1-----1-4---0-----0|
C-|-8-2-----2-----4-----4--|-2-----------4----------|
G-|-4----------55----5-----|-3-----3-----1-----1----|

A-|-----7-----7------------|-2-5-----5-----5-----3--|
E-|-5-----5-----5---1-5---1|-3---1-----1-----1-3---0|
C-|-------------2-2-----2--|-------------------0----|
G-|---6-----6--------------|-0-----0-----0----------|

A-|-0-3---2-2-5-7-----0---3|-5---2-----2-----2-----2|
E-|-1---0-1-----4-----0----|-------------0-----1----|
C-|-------------8---2------|-5-----2-----------2----|
G-|---------------4-----2--|---2-----2-----2-----2--|

A-|-----3-----3-----2-----2|-0---------3-----3-----3-|
E-|-0-----0-----0----------|-0-0---0-----0-----0-----|
C-|-------------2-----2----|-------------------4----4|
G-|---2-----2-----1-----1--|-5---2---2-----2-----2---|

A-|------5-----5-----5-----5-|-7-----7-----7------------|
E-|--0-----0-----0-----0-----|-5---5-----5-----5-----5--|
C-|--8-----------------4----4|--------------------4----4|
G-|----4-----4-----4-----4---|---5-----5-----5---9--5---|
s
A-|--------------------------|-7-----7-----7------------|
E-|-4-----4------------4-----|-5---5-----5-----5-----5--|
C-|-4--5----2-5----2-5-4-4-24|-9------------------4----4|
G-|---4----------4-----------|---5-----5-----5---9--5---|
s
A-|--------------------------|-7----------------------|
E-|-4-----4------------4-----|-5---5---5---5---0---0--|
C-|-4--5----2-5----2-5-4-4-24|-9-4-------4---0-------0|
G-|---4----------4-----------|-------5-----------2----|

⇢ Not happy with this tab? View 5 other version(s)

Uke tab by , 08 Feb 2014

Tab comments (2)

Something to say?
Share your strumming patterns, chords or tips to play this tab! ;)
Filter by:
curdle1200 avatar
I approve but I could not play this. Its because I am a sort of beginner, ive been playing for less than a year, and this was just too hard for me. But maybe for a more advanced player this could work. I do know the song, I do know how to read tab, I just am not at the level yet of this song.
07 Sep 2014
Comment
StyLeOfL1fe avatar
http://www.ukulele-tabs.com/uke-songs/ludwig-van-beethoven/moonlight-sonata-uke-tab-34156.html
23 Feb 2014
Comment

Top Tabs & Chords by Beethoven, Ludwig Van, don't miss these songs!

About this song: Moonlight Sonata

No information about this song.

Did you cover Moonlight Sonata on your Ukulele? Share your work!
Submit a cover