Happy Birthday Uke tab by Traditional

Ukulele Tab without chords.

Add tab to your SongBook
Tablature / ChordsFont size: A- A A+

Don't know how to read a tab or a chord ? Check out these uke lessons:

Detailed guide to strumming and picking
How to read uke tabs
Reading chord diagrams

X means open string.


Happy Birthday To You, Happy Birthday To You

A|-----x---3--2------x---5--3-------------|
E|-3--3--3------3--3---3------------------|
C|----------------------------------------|
G|----------------------------------------|


Happy Birthday To (quote name)

A|-----7--3--3-3--2--x--------------------|
E|-3--3-----------------------------------|
C|----------------------------------------|
G|----------------------------------------|


Happy Birthday To You!

A|-8--8--7--3--5--3-----------------------|
E|----------------------------------------|
C|----------------------------------------|
G|----------------------------------------|

 

Tab comments (3)
You must be logged in to join the discussion
or Register

 

 avatar
flag for (ISO2)
Missed a bit. But still sounds good.
19 Nov 2014
StrawberryF! avatar
flag for AU(ISO2) (Melbourne)
The 7th fret note in the 'happy birthday dear ____' is probably not right...would be better if it went, "10-7-3-2-0".
pretty good though
25 Mar 2012
Benpaco avatar
flag for US(ISO2) (California)
Kinda like its missing a chunk.
18 Mar 2012
About this song

No information about this song.