Yesterday Uke tab by The Beatles

0 Chords used in the song:

8.7/10
PrintAdd tab to your SongBook

Tablature / Chords (Full Song)

Font size: A- A A+

Artist: 
Album: 
Year:  1965
Key: unknownChords and Tablature
A|-------0-2-4-5-7-8-7-5-5-------------------------|
E|-3-1-1-------------------------------------------|
C|-------------------------------------------------|
G|-------------------------------------------------|
Yesterday, all my troubles seemed so far away.
A|-5-5-3-1-0---1-0-0-------------------------------|
E|-----------3-------------------------------------|
C|-------------------------------------------------|
G|-------------------------------------------------|
There's a shadow hanging over me
A|-----0-------0-0---------------------------------|
E|-3-1---3---1-------------------------------------|
C|---------2---------------------------------------|
G|-------------------------------------------------|
Oh, I believe in yesterday.

Suddenly I'm not half the man I used to be.
There's a shadow hanging over me.
Oh, yesterday came suddenly.

A|-0-0-5-7-8--7-5-7-5-3-5-0---------------------------|
E|----------------------------------------------------|
C|----------------------------------------------------|
G|----------------------------------------------------|
Why she had to go, I don't know, she wouldn't say.

A|-0-0--5-7-8-7-5-7-5-3-7-8-3-1-0----------------------|
E|-----------------------------------------------------|
C|-----------------------------------------------------|
G|-----------------------------------------------------|
I said something wrong, now I long for yesterday.

Yesterday love was such an easy game to play.
Now I need a place to hide away.
Oh, I believe in yesterday.

Why she had to go, I don't know, she wouldn't say.
I said something wrong, now I long for yesterday.

Yesterday love was such an easy game to play.
Now I need a place to hide away.
Oh, I believe in yesterday.

For (Mm mm mm mm mm mm mm) repeat Oh, I believe in yesterday

⇢ Not happy with this tab? View 12 other version(s)

Uke tab by , 22 Apr 2017

Tab comments (0)

No comment yet :(
Need help, a tip to share, or simply want to talk about this song? Start the discussion!

Something to say?
Share your strumming patterns, chords or tips to play this tab! ;)

Top Tabs & Chords by The Beatles, don't miss these songs!

About this song: Yesterday

No information about this song.

Did you cover Yesterday on your Ukulele? Share your work!
Submit a cover