Strawberry Fields Forever Uke tab by The Beatles

Ukulele Tab without chords.

Add tab to your SongBook
Tablature / ChordsFont size: A- A A+

Don't know how to read a tab or a chord ? Check out these uke lessons:

Detailed guide to strumming and picking
How to read uke tabs
Reading chord diagrams

Intro:
A|-7-7-7-7-7-7-5-4--0-5-0-4-2-0-----------|
E|-5-5-4-4-3-3-3-3-2---0----3-2-----------|
C|----------------------------------------|
G|----------------------------------------|

(let me take you down...)

A|-4-4-5-4-0-----2-0---0-2----0-1----7-5-4-2-0-2-|
E|-----------0-0----3-3---0--3---2--2-------4----|
C|-----------------------------------------------|
G|-----------------------------------------------|

(strawberry fields forever)

A|-4-0-4-0-2-0----------------------------|
E|----2---0-------------------------------|
C|----------------------------------------|
G|----------------------------------------|

 

Tab comments (1)
You must be logged in to join the discussion
or Register

 

oranis avatar
great
04 Mar 2013
About this song

"Strawberry Fields Forever" is a song by the English rock band The Beatles. Recorded at the end of 1966, the song was written by John Lennon during the filming of How I Won The War, but is credited to Lennon/McCartney. It is named after a Salvation Army house in Liverpool where Lennon played as a child. "Strawberry Fields Forever" begins with Lennon's vocals and accompaniment by the rest of the group; beginning at one minute into the song, Lennon is accompanied by an orchestral score.