With A Little Help From My Friends Uke tab by The Beatles

Ukulele Tab without chords.

Add tab to your SongBook
Tablature / ChordsFont size: A- A A+

Don't know how to read a tab or a chord ? Check out these uke lessons:

Detailed guide to strumming and picking
How to read uke tabs
Reading chord diagrams

||-0--1-3-3--1-0----0-1-1--1-1-0-------------0-------------|
||-1------0------3------3------3--3-3-3--1-3-1-------------|
||-0-------------2------2------2------0------0-------------|
||-2----------------------------------0------2-------------|

|-0--1-3-3--1-0----0-1-1--1-1-0---------------------------|
|-1------0------3------3------3--3-3-3--1-3-1-------------|
|-0-------------2------2------2------0------0-------------|
|-2----------------------------------0------2-------------|

|---3----0---------------0----3----0---------------0------|
|-1----1---3--1-1-1--1-1-1--1----1---3--1-1-1--1-1-1------|
|----------3------2------0-----------3------2------0------|
|----------0------3------2-----------0------3------2------|

|-0-3-8---8-8-7--5---0-0---0---1--------------------------|
|-----5---5---7--7---1---3---3-1--------------------------|
|-----5---5---5--5---0---3-----2--------------------------|
|-----5---5---5--5---2---------3--------------------------|

|-0-3-8---8-8-7--5---0-0---0---1--------------------------|
|-----5---5---7--7---1---3---3-1--------------------------|
|-----5---5---5--5---0---3-----2--------------------------|
|-----5---5---5--5---2---------3--------------------------|

|---3----1---------------0----3----0---------------0------|
|-1----1---3--1-1-1--1-1-1--1----1---3--1-1-1--1-1-1------|
|----------3------2------0-----------3------2------0------|
|----------0------3------2-----------0------3------2------|

|---3----0-------------------------------6-4-----6-6---3--||
|-1----1---3--1-1-1--1-1-1--1-1-1--1-1-4---4-8-6---6---1--||
|----------3------3------2------2------5---5---7---7---0--||
|----------0---------------------------------------8---2--||

 

Tab comments (3)
You must be logged in to join the discussion
or Register

 

hymnharmonia avatar
Brilliant, beautiful tab.
23 Sep 2012
ukecandice avatar
flag for US(ISO2) (slinger)
this is such a nice tab. it's so pretty, thank you.
03 Sep 2012
UkeChicken avatar
I freaking love this song! thank you sooooooooo much!
17 Jun 2010
About this song

No information about this song.