Strawberry Fields (Riff) Uke tab by The Beatles

Ukulele Tab without chords.

Add tab to your SongBook
Tablature / ChordsFont size: A- A A+

Don't know how to read a tab or a chord ? Check out these uke lessons:

Detailed guide to strumming and picking
How to read uke tabs
Reading chord diagrams

A|-2-2-3-2-------0-----------0----------------|
E|--------------------------------------------|
C|-----------2-4-----5---5------2---5-----2---|
G|---------0-------0-------0----------0-1-----|


A|-----------------2-----2-----0---|
E|---------------------0-----------|
C|-2-------------------------2-----|
G|---7-5-4-2-1-2-4---0-----0-----0-|

carry on throughout song

thanks and goodluck xD

 

Tab comments (2)
You must be logged in to join the discussion
or Register

 

Rosefully avatar
flag for DE(ISO2) (Neverland)
i like it and this is really easy to play, thanks c:
23 Feb 2018
IZFOREVER avatar
flag for GB(ISO2) (BEDFORDSHIRE)
my absoloute favourite !brilliant tab!
01 Jan 2010
About this song

No information about this song.