Nowhere Man Uke tab by The Beatles

Ukulele Tab without chords.

Add tab to your SongBook
Tablature / ChordsFont size: A- A A+

Don't know how to read a tab or a chord ? Check out these uke lessons:

Detailed guide to strumming and picking
How to read uke tabs
Reading chord diagrams

A|-3-3-7-5-3-2-0-0-3-3-3-3---0-0-3-3-3-3-0-0-------|
E|-------------------------3-----------------4-3-3-|
C|-------------------------------------------------|
G|-------------------------------------------------|
He's a real nowhere man sitting in his nowhere land making all his nowhere plans for nobody


A|-3-3-7-7-5-3-2-0-0-3-3-3-3---0-0-3-3-3-3-0-0----|
E|---------------------------3-----------------4-3|
C|------------------------------------------------|
G|------------------------------------------------|
Doesn't have a point of view know not where he's going to. Isn't he a bit like you and me?


A|-2-0-0-0-0-2-0-0-0-0-2-0-2-2-2-2-2-2-|
E|-3---------3---------3---------------|
C|---0-0-0-0---0-0-0-0---0-3-3-3-3-3-3-|
G|-------------------------------------|
ahlalala ahlalala ahlalalalalala


A|-3-3-7-7-5-3-2-0-0-3-3-3-3---0-0-3-3-3-3-0-0-----|
E|---------------------------3-----------------4-3-|
C|-------------------------------------------------|
G|-------------------------------------------------|
He's a s blind as he can be. Just sees what he wants to see. Nowhere man can you see me at all?



A|-2-0-0-0-0-2-0-0-0-0-2-0-2-2-2-2-2-2-|
E|-3---------3---------3---------------|
C|---0-0-0-0---0-0-0-0---0-3-3-3-3-3-3-|
G|-------------------------------------|
ahlalala ahlalala ahlalalalalala



A|-3-3-7-5-3-2-0-0-3-3-3-3---0-0-3-3-3-3-0-0-------|
E|-------------------------3-----------------4-3-3-|
C|-------------------------------------------------|
G|-------------------------------------------------|
He's a real nowhere man sitting in his nowhere land making all his nowhere plans for nobody


A|-0-0-3-3-8-8-8-8-8-7-7------------------|
E|----------------------------------------|
C|----------------------------------------|
G|----------------------------------------|
Making all his nowhere plans for nobody

 

Tab comments (0)
No comment yet :(
Need help, a tip to share, or simply want to talk about this song? Start the discussion!

You must be logged in to join the discussion
or Register

 

About this song

"Nowhere Man" is a song by The Beatles, from their hit album Rubber Soul (the UK version - in the U.S. it was moved to the Yesterday... and Today album). It was recorded on October 21 and 22, 1965. It was released as a single (although not in the UK) on February 15 1966 and reached #1 in Canada and #3 on the Billboard Hot 100. Also featured on the Yellow Submarine Songtrack album.