Bohemian Rapsody Uke tab by Queen

Ukulele Tab without chords.

8.2/10
PrintAdd tab to your SongBook

Tablature / Chords (Full Song)

Font size: A- A A+

Artist: 
Album:  unknown
Key: unknownTablature (no chords)
OPENING SECTION RIFF
A--0-0-4-9-7-0-0-4-9-7
E---0---------0-------
C---------------------
G---------------------

A--4-4-0-2-4-4---2-4-5-7-5-4-2--2-4-5-7-5-4-2
E--------------------------------------------
C--------------------------------------------
G--------------------------------------------

A--4-4-----7-11-9-9--7-9-12-12-12-12-12-9-5-4-2-2
E------------------------------------------------
C------------------------------------------------
G------------------------------------------------

A--9-9-7-9-10-9-10-9-9-7-7--0-0-7-7-9-9-9-10-10-12-10-9
E------------------------------------------------------
C------------------------------------------------------
G------------------------------------------------------

A--7-9-12-7-9-5--0-0-1-3-1-3-1-0-------------
E--------------------------------------------
C--------------------------------------------
G--------------------------------------------

A--4-4-0-2-4-4---2-4-5-7-5-4-2--2-4-5-7-5-4-2
E--------------------------------------------
C--------------------------------------------
G--------------------------------------------

A--4-4-----7-11-9-9--7-9-12-12-12-12-12-9-5-4-2-2
E------------------------------------------------
C------------------------------------------------
G------------------------------------------------

A--9-9-7-9-10-9-10-9-9-7-7--0-0-7-7-9-9-9-10-10-12-10-9
E------------------------------------------------------
C------------------------------------------------------
G------------------------------------------------------

It changes into the guitar solo here;
A--9-7-5-12-9---------------7------7--------------
E-----------------------------0-2-3-3--8-8-8------
C--------------------------------------------0-0--
G-------------4--4-6-7-4-6-7----------------------

Then it goes into the "i see a little silhouette-a" piece, which i like to play acapella.

I'm not sure of the rest of the song, but i hope this opening section is fun for you!
Lize xx

Uke tab by , 14 Mar 2012

Tab comments (1)

Something to say?
Share your strumming patterns, chords or tips to play this tab! ;)
Filter by:
Casey06 avatar
I like the start bit! I wish there were some words though. After the start I just get lost.
14 Mar 2012
Comment

About this song: Bohemian Rapsody

No information about this song.

Did you cover Bohemian Rapsody on your Ukulele? Share your work!
Submit a cover