I Want You (she's So Heavy) (Riff) Uke tab by The Beatles

Ukulele Tab without chords.

Add tab to your SongBook
Tablature / ChordsFont size: A- A A+

Don't know how to read a tab or a chord ? Check out these uke lessons:

Detailed guide to strumming and picking
How to read uke tabs
Reading chord diagrams

a----5---5---------5--5----------5-5-------1-5-5---------0--4--------------|
E------1---------1--1---------0---1-----------1--------------1-------------|
d-2------------------------------------------------------------------------|
g--2------2-------2----2--------1---1-------1---1----------2---------------|

a---3-5---------777----------3-5-5--3---3----5----7777-----------------------|
E---------------555-------------------------------5555-----------------------|
d---------------999-------------------------------9999-----------------------|
g-2-------------------------2---------2--------------------------------------|

a----3---5--5--3-------------------------0----------------------|
E-----------------------0---------0-----------------------------|
d-----------------------------------2--0------------------------|
g--2--------------2--0-----0-2-0--------------------------------|

 

Tab comments (0)
No comment yet :(
Need help, a tip to share, or simply want to talk about this song? Start the discussion!

You must be logged in to join the discussion
or Register

 

About this song

"I Want You (She's So Heavy)" is a song by The Beatles, from their album Abbey Road. It was written by John Lennon (with some creative input from Yoko Ono), although it is credited as a Lennon/McCartney collaboration. The song is an unusual Beatles composition for a variety of reasons, namely its length (nearly eight minutes), its disproportionately small number of lyrics (only fourteen different words are sung)...