I Want You (shes So Heavy) Uke tab by The Beatles

Ukulele Tab without chords.

Add tab to your SongBook
Tablature / ChordsFont size: A- A A+

Don't know how to read a tab or a chord ? Check out these uke lessons:

Detailed guide to strumming and picking
How to read uke tabs
Reading chord diagrams

# Symbol Key:^ - bend string
# * - vibrato
# / - slide
----------2-2-2-------------------------2-2-2---------2-2-2---
------1-3-3-3-3---------1-3-3^-3-1--1-3-3-3-3----1-3*-3-3-3---
---2------2-3-2---2-2-2------------2----2-2-2---2-----2-2-2---
----------0-0-0-------------------------0-0-0---------0-0-0---

-----------------------------------------------2-2-2-2-2--2-2-2-
---------1-3-3^-3-1*---------------3-1---------3-3-3-3-3--3-3-3-
---2-2-2-------------2-1-0-1-1/3-1-----3-1-9/1-4-4-4-4-4--4-4-4-
-----------------------------------------------0-0-0-0-0--0-0-0-

---------------------2-2-2-2-2--2-2-2----------------------
-------1-3-4-3-------3-3-3-3-3--3-3-3-------1-3-4-3--------
-0-1-3---------2/8/2-4-4-4-4-4--4-4-4-0-1-3---------2/8/2--
---------------------0-0-0-0-0--0-0-0----------------------

-2-2-2-2-2--2-2-2-----5-7^-7-5-7*-5*----------5-7-7^-7-5----5-7*-5-5-5--
-3-3-3-3-3--3-3-3---7-------------6*-7*-7*-7*------------7*------6-6-6--
-4-4-4-4-4--4-4-4-----------------7*-----------------------------7-7-7--
-0-0-0-0-0--0-0-0-----------------0------------------------------0-0-0--

---5-5*----------5-7-7^-7-5-------------------------------
-7---7*-7*-7*-7*------------7*-5*----5*-7^-5*-7-5---------
----------------------------------6*--------------7-5-9/1-
----------------------------------------------------------

 

Tab comments (3)
You must be logged in to join the discussion
or Register

 

eddiepeach avatar
flag for CA(ISO2) (Cornerbrook)
I'm so confused. I don't know how to play this because I can't tell what part of the song this is.
16 Feb 2012
jewkulele avatar
flag for US(ISO2) (Falmouth)
pretty good!
23 Oct 2010
actor41 avatar
put some chords in there too, otherwise well done
01 Oct 2010
About this song

No information about this song.