Talk Show Host Uke tab by Radiohead

Ukulele Tab without chords.

Add tab to your SongBook
Tablature / ChordsFont size: A- A A+

Don't know how to read a tab or a chord ? Check out these uke lessons:

Detailed guide to strumming and picking
How to read uke tabs
Reading chord diagrams

A-----------------------------------|
E-6----3-3--3--3----6-----3-3--3--3-|
C------3-3--2-------------3-3--2----|
G---5----------5------5-----------5-|

A-----------------------------------|
E------3-3--3--3----------3-3--3--3-|
C------3-3--2-------------3-3--2----|
G--------------5------------------5-|
A----------6------------------6--------------------------------------|
E------4------------------4--------------3-3--3--3--------3-3--3--3--|
C----------------------------------------3-3--2-----------3-3--2-----|
G--------0---0--------------0---0----------------5----------------5--|
~ ~ ~ ~ S ~
A--------------------------------------------------------------------|
E-4--------3-------2--------3----------------------------------------|
C--------------------------------------------------------------------|
G-------------------------------------5------------------------------|

A----------------------------------------------------------------------|
E------3-3--3--3----------3-3--3--3---------3-3--3--3--------3-3--3--3-|
C------3-3--2-------------3-3--2------------3-3--2-----------3-3--2----|
G--------------5------------------5-----------------5----------------5-|
S ~ S S ~ S ~ ~
A--------------------------------------------------------------------|
E--------------------------------------------------------------------|
C--------------------------------------------------------------------|
G-------8--5-------------5--8--5----------8--8--7--5---------8-------|

A----------6------------------6--------------------------------------|
E------4------------------4--------------3-3--3--3--------3-3--3--3--|
C----------------------------------------3-3--2-----------3-3--2-----|
G--------0---0--------------0---0----------------5----------------5--|
~ ~ ~ ~
A--------------------------------------------------------------------|
E-4--------3-------2--------3----------------------------------------|
C--------------------------------------------------------------------|
G--------------------------------------------------------------------|

A-----------------7---------------|
E-6---------------10--------------|
C-3---------------7--------------|
G-8---------------12--------------|

A-----------------------------------|
E------3-3--3--3----------3-3--3--3-|
C------3-3--2-------------3-3--2----|
G--------------5------------------5-|

A----------------------------------------------------------------------|
E------3-3--3--3----------3-3--3--3---------3-3--3--3--------3-3--3--3-|
C------3-3--2-------------3-3--2------------3-3--2-----------3-3--2----|
G--------------5------------------5-----------------5----------------5-|

A-x-x-x-x--x-x-x-x-x--x-x-x-x--x-x-x-x-x-x--x-x-x-x--x-x-x-x-x-x-x-x-|
E-------x----------x--------x------------x--------x----------------x-|
C-x-x-x-x--x-x-x-x-x--x-x-x-x--x-x-x-x-x-x--x-x-x-x--x-x-x-x-x-x-x-x-|
G-x-x-x-x--x-x-x-x-x--x-x-x-x--x-x-x-x-x-x--x-x-x-x--x-x-x-x-x-x-x-x-|

A----------6------------------6--------------------------------------|
E------4------------------4--------------3-3--3--3--------3-3--3--3--|
C----------------------------------------3-3--2-----------3-3--2-----|
G--------0---0--------------0---0----------------5----------------5--|

A-x-x-x-x--x-x-x-x-x--x-x-x-x--x-x-x-x-x-x--x-x-x-x--x-x-x-x-x-x-x-x-|
E-------x----------x--------x------------x--------x----------------x-|
C-x-x-x-x--x-x-x-x-x--x-x-x-x--x-x-x-x-x-x--x-x-x-x--x-x-x-x-x-x-x-x-|
G-x-x-x-x--x-x-x-x-x--x-x-x-x--x-x-x-x-x-x--x-x-x-x--x-x-x-x-x-x-x-x-|
P P P P P P P ~ ~ S
A------------------------------------------------------------------------------------|
E--------------------------------------------------------------------|
C--------------------------------------------------------------------|
G------13--12--13--12--13--12--13--12--13--12--13--12--13--12--13----------12--------|

A-x-x-x-x--x-x-x-x-x--x-x-x-x--x-x-x-x-x-x--x-x-x-x--x-x-x-x-x-x-x-x-|
E-------x----------x--------x------------x--------x----------------x-|
C-x-x-x-x--x-x-x-x-x--x-x-x-x--x-x-x-x-x-x--x-x-x-x--x-x-x-x-x-x-x-x-|
G-x-x-x-x--x-x-x-x-x--x-x-x-x--x-x-x-x-x-x--x-x-x-x--x-x-x-x-x-x-x-x-|
S ~ S ~ ~
A--------------------------------------------------------------------|
E---3--4-------------------------------------------------------------|
C--------------------------------------------------------------------|
G------------------4----5--------------------------------------------|

A------------------7----------------7----------------5-------------|
E-6----------------10---------------6---------------8------------|
C-3----------------7---------------10---------------5------------|
G-8----------------12---------------7---------------10------------|

A-------------------------------------------|
E------3-3--3--3----------3-3--3--3---------|
C------3-3--2-------------3-3--2------------|
G--------------5------------------5---------|

A-x-x-x-x--x-x-x-x-x--x-x-x-x--x-x-x-x-x-x-|
E-------x----------x--------x------------x-|
C-x-x-x-x--x-x-x-x-x--x-x-x-x--x-x-x-x-x-x-|
G-x-x-x-x--x-x-x-x-x--x-x-x-x--x-x-x-x-x-x-|
~ ~ S ~ ~
A-------------------------------------------------|
E----------------------------------------------|
C----------------------------------------------|
G--5----5-b6-r5------------12---10--12------------|

A-x-x-x-x--x-x-x-x-x--x-x-x-x--x-x-x-x-x-x--x-x-x-x--x-x-x-x-x-x-x-x-|
E-------x----------x--------x------------x--------x----------------x-|
C-x-x-x-x--x-x-x-x-x--x-x-x-x--x-x-x-x-x-x--x-x-x-x--x-x-x-x-x-x-x-x-|
G-x-x-x-x--x-x-x-x-x--x-x-x-x--x-x-x-x-x-x--x-x-x-x--x-x-x-x-x-x-x-x-|
S ~ ~ ~
A-----------------------------------------------------------------|
E-----------------------------------------------------------------|
C-----------------------------------------------------------------|
G-----5----8-------7---------------5------------------------4-----|

A------------------7----------------7----------------5-------------|
E-6----------------10---------------6---------------8------------|
C-3----------------7---------------10---------------5------------|
G-8----------------12---------------7---------------10------------|

A----------------------------------------------------------------------|
E------3-3--3--3----------3-3--3--3---------3-3--3--3--------3-3--3--3-|
C------3-3--2-------------3-3--2------------3-3--2-----------3-3--2----|
G--------------5------------------5-----------------5----------------5-|

A-x-x-x-x--x-x-x-x-x--x-x-x-x--x-x-x-x-x-x--x-x-x-x--x-x-x-x-x-x-x-x-|
E-------x----------x--------x------------x--------x----------------x-|
C-x-x-x-x--x-x-x-x-x--x-x-x-x--x-x-x-x-x-x--x-x-x-x--x-x-x-x-x-x-x-x-|
G-x-x-x-x--x-x-x-x-x--x-x-x-x--x-x-x-x-x-x--x-x-x-x--x-x-x-x-x-x-x-x-|
~ S ~ S S ~
A-----------------------------------------------------------------|
E-----------------------------------------------------------------|
C-----------------------------------------------------------------|
G-5--------------------5----------------4-----8-------------------|

A----------6------------------6--------------------------------------|
E------4------------------4--------------3-3--3--3--------3-3--3--3--|
C----------------------------------------3-3--2-----------3-3--2-----|
G--------0---0--------------0---0----------------5----------------5--|

A-x-x-x-x--x-x-x-x-x-x-x-x-x--x-x-8--x-x-x--------5--x--x-x-x-x-x-x--------5--x-|
E-------x----------x-------x------6--------6-6---x---------------6-6---x-|
C-x-x-x-x--x-x-x-x-x-x-x-x-x----x-12-x------3-3-5-x----x---x------3-3-5-x-|
G-x-x-x-x--x-x-x-x-x-x-x-x-x--5-x-8-x-5-5------5-x--5-x-5-x-5-5------5-x-|

A----------6------------------6--------------------------------------|
E------4------------------4--------------3-3--3--3--------3-3--3--3--|
C----------------------------------------3-3--2-----------3-3--2-----|
G--------0---0--------------0---0----------------5----------------5--|

A-x-x-x-----x-x-x-x----x-x--------x-x-8--x-x-x--------5--x--x-x-x-x-x-x--------5--x-|
E-------6----------6-----6-6------6--------6-6---x---------------6-6---x-|
C---x-x-3----x---x-3-x-x-3-3----x-12-x------3-3-5-x----x---x------3-3-5-x-|
G-5-x-x----5-x-5-x---x-x------5-x-8-x-5-5------5-x--5-x-5-x-5-5------5-x-|

 

Tab comments (0)
No comment yet :(
Need help, a tip to share, or simply want to talk about this song? Start the discussion!

You must be logged in to join the discussion
or Register

 

About this song

"Talk Show Host" was the B-side track for the 1996 Radiohead single Street Spirit (Fade Out). A remix of this track also appeared on the soundtrack for the 1996 film Romeo + Juliet.