No Surprises Uke tab by Radiohead

12 Chords used in the song: F, A#5, G5, Dm/A#, A#, C, Gm, A#6, Cadd11, Am, C#, D#

Add tab to your SongBook
Tablature / ChordsFont size: A- A A+

Don't know how to read a tab or a chord ? Check out these uke lessons:

Detailed guide to strumming and picking
How to read uke tabs
Reading chord diagrams

A||--12---------8---------|--12---------8---------|--12---------8---------|-------------8----10----|
E||--------8---------8----|--------8---------8----|--------8---------8----|--------9---------------|
C||-----------------------|-----------------------|-----------------------|--10--------------------|
G||-----------------------|-----------------------|-----------------------|------------------------|


--12---------8---------|--12---------8---------|--12---------8---------|-------------8----10----|
--------8---------8----|--------8---------8----|--------8---------8----|--------9---------------|
-----------------------|-----------------------|-----------------------|--10--------------------|
-----------------------|-----------------------|-----------------------|------------------------|


F F A#5 A#5 F F G5 G5
# |--0--------0------0--|--0--------0------0--|--0--------0--------|---------------------------|
|--1--------1------1--|--1--------1------1--|--1--------1--------|---------------------------|
|--0--------0------0--|--0--------0------0--|--0--------0--------|--x--5---x--5-----2--2--2--|
|--2--------2------2--|--2--------2------2--|--2--------2--------|--x--3---x--2-----0--0--0--|


F F A#5 A#5 F F G5 G5
# |--0--------0------0--|--0--------0------0--|--0--------0--------|---------------------------|
|--1--------1------1--|--1--------1------1--|--1--------1--------|---------------------------|
|--0--------0------0--|--0--------0------0--|--0--------0--------|--x--5---x--5-----2--2--2--|
|--2--------2------2--|--2--------2------2--|--2--------2--------|--x--3---x--2-----0--0--0--|


F F
# |--0--------0------0--|--0--------0------0--|--0--------0------0--|--0--------0--------|
|--1--------1------1--|--1--------1------1--|--1--------1------1--|--1--------1--------|
|--0--------0------0--|--0--------0------0--|--0--------0------0--|--0--------0--------|
|--2--------2------2--|--2--------2------2--|--2--------2------2--|--2--------2--------|


Dm/A# Dm/A#
# |--0--------0------0--|--0--------0------0--|--0--------0------0--|--0--------0----x----|
|--1--------1------1--|--1--------1------1--|--1--------1------1--|--1--------1----x----|
|--2--------2------2--|--2--------2------2--|--2--------2------2--|--2--------2----x----|
|--3--------3------3--|--3--------3------3--|--3--------3------3--|--3--------3----x----|


A# A# C C
# --1--------1------1--|--1--------1------1--|--3--------3------3--|--3--------3--------|
--1--------1------1--|--1--------1------1--|--0--------0------0--|--0--------0--------|
--2--------2------2--|--2--------2------2--|--0--------0------0--|--0--------0--------|
--3--------3------3--|--3--------3------3--|--0--------0------0--|--0--------0--------|


F F A#5 A#5 F F G5 G5
# --0--------0------0--|--0--------0------0--|--0--------0--------|---------------------------|
--1--------1------1--|--1--------1------1--|--1--------1--------|---------------------------|
--0--------0------0--|--0--------0------0--|--0--------0--------|--x--5---x--5-----2--2--2--|
--2--------2------2--|--2--------2------2--|--2--------2--------|--x--3---x--2-----0--0--0--|


F F
# --0--------0------0--|--0--------0------0--|--0--------0------0--|--0--------0--------|
--1--------1------1--|--1--------1------1--|--1--------1------1--|--1--------1--------|
--0--------0------0--|--0--------0------0--|--0--------0------0--|--0--------0--------|
--2--------2------2--|--2--------2------2--|--2--------2------2--|--2--------2--------|


Dm/A# Dm/A#
# --0--------0------0--|--0--------0------0--|--0--------0------0--|--0--------0----x----|
--1--------1------1--|--1--------1------1--|--1--------1------1--|--1--------1----x----|
--2--------2------2--|--2--------2------2--|--2--------2------2--|--2--------2----x----|
--3--------3------3--|--3--------3------3--|--3--------3------3--|--3--------3----x----|


A# A# C C
# --1--------1------1--|--1--------1------1--|--3--------3------3--|--3--------3--------|
--1--------1------1--|--1--------1------1--|--0--------0------0--|--0--------0--------|
--2--------2------2--|--2--------2------2--|--0--------0------0--|--0--------0--------|
--3--------3------3--|--3--------3------3--|--0--------0------0--|--0--------0--------|


F F A#5 A#5 F F G5 G5
# --0--------0------0--|--0--------0------0--|--0--------0--------|---------------------------|
--1--------1------1--|--1--------1------1--|--1--------1--------|---------------------------|
--0--------0------0--|--0--------0------0--|--0--------0--------|--x--5---x--5-----2--2--2--|
--2--------2------2--|--2--------2------2--|--2--------2--------|--x--3---x--2-----0--0--0--|


F F
# --0--------0------0--|--0--------0------0--|--0--------0------0--|--0--------0--------|
--1--------1------1--|--1--------1------1--|--1--------1------1--|--1--------1--------|
--0--------0------0--|--0--------0------0--|--0--------0------0--|--0--------0--------|
--2--------2------2--|--2--------2------2--|--2--------2------2--|--2--------2--------|


Dm/A# Dm/A#
# --0--------0------0--|--0--------0------0--|--0--------0------0--|--0--------0----x----|
--1--------1------1--|--1--------1------1--|--1--------1------1--|--1--------1----x----|
--2--------2------2--|--2--------2------2--|--2--------2------2--|--2--------2----x----|
--3--------3------3--|--3--------3------3--|--3--------3------3--|--3--------3----x----|


Gm A#6 C Cadd11 G5
# --1--------1------1--|--1----1----1----3----|--L--------3----3------|--L-----------------|
--3--------3------3--|--3----3----3----0----|--L--------0----0------|--L----3------------|
--2--------2------2--|--2----2----5----0----|--L--------0----5------|--L----2------------|
--0--------0------0--|--0----0----0----0----|--L--------0----0------|--L----0------------|


Gm A#6 C Cadd11 G5
# --1--------1------1--|--1----1----1----3----|--L--------3----3------|--L-----------------|
--3--------3------3--|--3----3----3----0----|--L--------0----0------|--L----3------------|
--2--------2------2--|--2----2----5----0----|--L--------0----5------|--L----2------------|
--0--------0------0--|--0----0----0----0----|--L--------0----0------|--L----0------------|


Gm A#6 C Cadd11 G5
# --1--------1------1--|--1----1----1----3----|--L--------3----3------|--L-----------------|
--3--------3------3--|--3----3----3----0----|--L--------0----0------|--L----3------------|
--2--------2------2--|--2----2----5----0----|--L--------0----5------|--L----2------------|
--0--------0------0--|--0----0----0----0----|--L--------0----0------|--L----0------------|


--12---------8---------|--12---------8---------|--12---------8---------|-------------8----10----|
--------8---------8----|--------8---------8----|--------8---------8----|--------9---------------|
-----------------------|-----------------------|-----------------------|--10--------------------|
-----------------------|-----------------------|-----------------------|------------------------|


--12---------8---------|--12---------8---------|--12---------8---------|-------------8----10----|
--------8---------8----|--------8---------8----|--------8---------8----|--------9---------------|
-----------------------|-----------------------|-----------------------|--10--------------------|
-----------------------|-----------------------|-----------------------|------------------------|


--12---------8---------|--12---------8---------|--12---------8---------|--12---------8---------|
--------8---------8----|--------8---------8----|--------8---------8----|--------8---------8----|
-----------------------|-----------------------|-----------------------|-----------------------|
-----------------------|-----------------------|-----------------------|-----------------------|


--12---------8---------|--12---------8---------|--12---------8---------|--12---------8---------|
--------6---------6----|--------6---------6----|--------6---------6----|--------6---------6----|
-----------------------|-----------------------|-----------------------|-----------------------|
-----------------------|-----------------------|-----------------------|-----------------------|


Gm A#6 C Cadd11 G5
# --1--------1------1--|--1----1----1----3----|--L--------3----3------|--L-----------------|
--3--------3------3--|--3----3----3----0----|--L--------0----0------|--L----3------------|
--2--------2------2--|--2----2----5----0----|--L--------0----5------|--L----2------------|
--0--------0------0--|--0----0----0----0----|--L--------0----0------|--L----0------------|


Gm A#6 C Cadd11 G5
# --1--------1------1--|--1----1----1----3----|--L--------3----3------|--L-----------------|
--3--------3------3--|--3----3----3----0----|--L--------0----0------|--L----3------------|
--2--------2------2--|--2----2----5----0----|--L--------0----5------|--L----2------------|
--0--------0------0--|--0----0----0----0----|--L--------0----0------|--L----0------------|


Gm A#6 C Cadd11 G5
# --1--------1------1--|--1----1----1----3----|--L--------3----3------|--L-----------------|
--3--------3------3--|--3----3----3----0----|--L--------0----0------|--L----3------------|
--2--------2------2--|--2----2----5----0----|--L--------0----5------|--L----2------------|
--0--------0------0--|--0----0----0----0----|--L--------0----0------|--L----0------------|


F F A#5 A#5 F F G5 G5
# --0--------0------0--|--0--------0------0--|--0--------0--------|---------------------------|
--1--------1------1--|--1--------1------1--|--1--------1--------|---------------------------|
--0--------0------0--|--0--------0------0--|--0--------0--------|--x--5---x--5-----2--2--2--|
--2--------2------2--|--2--------2------2--|--2--------2--------|--x--3---x--2-----0--0--0--|


C C Gm Gm
# --3----3----3----3----|--3----3----3----3----|--1----1----1----1----|--1----1----1----1----|
--0----0----0----0----|--0----0----0----0----|--3----3----3----3----|--3----3----3----3----|
--0----0----0----0----|--0----0----0----0----|--2----2----2----2----|--2----2----2----2----|
--0----0----0----0----|--0----0----0----0----|--0----0----0----0----|--0----0----0----0----|


C C Gm Gm
# --3----3----3----3----|--3----3----3----3----|--1----1----1----1----|--1----1----1----1----|
--0----0----0----0----|--0----0----0----0----|--3----3----3----3----|--3----3----3----3----|
--0----0----0----0----|--0----0----0----0----|--2----2----2----2----|--2----2----2----2----|
--0----0----0----0----|--0----0----0----0----|--0----0----0----0----|--0----0----0----0----|


G5 G5 Am Am A# A# C C C# C# D# D# F F Gm Gm
# ----------------------|----------------------|----------------------|----------------------|
--3----3----0----0----|--1----1----0----0----|--1----1----3----3----|--5----5----6----6----|
--2----2----0----0----|--2----2----0----0----|--1----1----3----3----|--5----5----7----7----|
--0----0----2----2----|--3----3----0----0----|--1----1----3----3----|--5----5----7----7----|


F F
# --0--------0------0--|--0--------0------0--|--0--------0------0--|--0--------0--------|
--1--------1------1--|--1--------1------1--|--1--------1------1--|--1--------1--------|
--0--------0------0--|--0--------0------0--|--0--------0------0--|--0--------0--------|
--2--------2------2--|--2--------2------2--|--2--------2------2--|--2--------2--------|


Dm/A# Dm/A#
# --0--------0------0--|--0--------0------0--|--0--------0------0--|--0--------0----x----|
--1--------1------1--|--1--------1------1--|--1--------1------1--|--1--------1----x----|
--2--------2------2--|--2--------2------2--|--2--------2------2--|--2--------2----x----|
--3--------3------3--|--3--------3------3--|--3--------3------3--|--3--------3----x----|


Gm A#6 C Cadd11 G5
# --1--------1------1--|--1----1----1----3----|--L--------3----3------|--L-----------------|
--3--------3------3--|--3----3----3----0----|--L--------0----0------|--L----3------------|
--2--------2------2--|--2----2----5----0----|--L--------0----5------|--L----2------------|
--0--------0------0--|--0----0----0----0----|--L--------0----0------|--L----0------------|


Gm A#6 C Cadd11 G5
# --1--------1------1--|--1----1----1----3----|--L--------3----3------|--L-----------------|
--3--------3------3--|--3----3----3----0----|--L--------0----0------|--L----3------------|
--2--------2------2--|--2----2----5----0----|--L--------0----5------|--L----2------------|
--0--------0------0--|--0----0----0----0----|--L--------0----0------|--L----0------------|


Gm A#6 C Cadd11 G5
# --1--------1------1--|--1----1----1----3----|--L--------3----3------|--L-----------------|
--3--------3------3--|--3----3----3----0----|--L--------0----0------|--L----3------------|
--2--------2------2--|--2----2----5----0----|--L--------0----5------|--L----2------------|
--0--------0------0--|--0----0----0----0----|--L--------0----0------|--L----0------------|


|--12---------8---------|--12---------8---------|--12---------8---------|-------------8----10----|
|--------8---------8----|--------8---------8----|--------8---------8----|--------9---------------|
|-----------------------|-----------------------|-----------------------|--10--------------------|
|-----------------------|-----------------------|-----------------------|------------------------|


|--12---------8---------|--12---------8---------|--12---------8---------|-------------8----10----|
|--------8---------8----|--------8---------8----|--------8---------8----|--------9---------------|
|-----------------------|-----------------------|-----------------------|--10--------------------|
|-----------------------|-----------------------|-----------------------|------------------------|


|--12----------------||
|--------------------||
|--------------------||
|--------------------||

 

Tab comments (0)
No comment yet :(
Need help, a tip to share, or simply want to talk about this song? Start the discussion!

You must be logged in to join the discussion
or Register

 

About this song

No Surprises is a song by the British alternative rock band Radiohead. It was released as the third and final single from the group's 1997 album OK Computer. Accompanied by a music video that featured a single shot of singer Thom Yorke's head in a plastic bubble that filled with water, the single peaked at number four in the United Kingdom. Radiohead wrote "No Surprises" while touring with the band R.E.M. in 1995.