One (Intro) Uke tab by Metallica

Ukulele Tab without chords.

Add tab to your SongBook
Tablature / ChordsFont size: A- A A+

Don't know how to read a tab or a chord ? Check out these uke lessons:

Detailed guide to strumming and picking
How to read uke tabs
Reading chord diagrams

|--2--9--2--5--|--0--9--0--5--|-----9-----5--|-----2-----2-------| 
|--------------|--------------|--3-----3-----|--0-----2----------|
|--------------|--------------|--------------|-------------------|
|-(0)----------|--------------|--------------|-------------------|

|--2--9--2--5--|-----9-----5--|--2--9--2--5--|-----9-----5-------|
|--------------|--3-----3-----|--------------|--3-----3----------|
|*-------------|--------------|--------------|-------------------|
|*-------------|--------------|--------------|--------------0----|


|--2--9--2--5--|--0--9--0--5--|-----9-----5--|-----2-----2-------|
|--------------|--------------|--3-----3-----|--0-----2----------|
|--------------|--------------|--------------|------------------*|
|--------------|--------------|--------------|------------------*|


|-----2-----2-----2--2h4--2-|--2--9--2--5--5--9--0-|-----9-----5--9--9--5--|
|--0-----2-----0------------|----------------------|--3-----3--------------|
|---------------------------|----------------------|-----------------------|
|---------------------------|----------------------|-----------------------|


|--2--9--2--5--5--9--0--|-----9-----5--9--9--5--|--2--9--2--5--5--9--5--|
|-----------------------|--3-----3--------------|-----------------------|
|-----------------------|-----------------------|-----------------------|
|-----------------------|-----------------------|-----------------------|


|--0--9--0--5--9--9-----|-----9-----5--5--9--5--|-----7-9--7-----4--|
|-----------------------|--3-----3--------------|--0----------2-----|
|-----------------------|-----------------------|-------------------|
|--------------------0--|-(0)-------------------|-------------------|
H P H P
|-----------------------|-----------------------|-----2-5-2----2-5-2-----|
|--3---------3--5-------|------5--------5-------|--3---------------------|
|-----2---2--------4----|*--2--------2----------|------------------------|
|-----------------------|*--------0--------0----|------------4--------0--|
S
|-----------3-----|-----------2-----2---|-----2------------|
|--1-----1--------|--0-----------0------|--0---------------|
|-----------------|--------------------*|--------------0---|
|-----0--------0--|-----4--0-----------*|--------0--4------|
H P P P
|-----------------------|-----5-4-----5-4---------5----|-5-4----------------|
|-----0-2---------------|------------------------------|--------------------|
|-----------------------|------------------------------|--------------------|
|---------2---4b6b4-----|---------4-------2------------|-----4--------------|
S S S P H S S H
|-------7---7-6---6-4---4-2--------|------------------------4-5-|
|-----2----------------------------|----------------------------|
|---------2------------------------|----------------------------|
|---------------------4-----0-2----|-2-4--------------2-4-------|
S P S
|-4-------------4---5-4-----|-------------------------|-------------|
|---------------------------|-------------------------|-------------|
|---------------------------|-------------------------|-------------|
|---------2-4-----------2---|-2-4---------------------|-------------|

|------------------x------------|------------------------------------|
|-----------------}-----------|--------------------------------|
|-----------------{x----------|--------------------------------|
|-----------------}11----16-----|-14--12--11--12--7------------------|
P P P S
|--------------------------------|---------------------------------|
|--------------------------------|----------3----3-----------------|
|-----2---2-----4-2-4-------6--4-|-6-----6------------6------------|
|-------6------------------------|---------------------------------|

|---------------------------------------------|-----------------------
|--------------3--5-------------3-------------|-----------------------
|-----------6----------------6----------------|-6---------------------
|-----4--7-------------4--7--------4----4--7--|----4--6----7---9------

-----------------------|------------------------------|
-----------------------|------------------------------|
-----------------------|------------------------------|
---7----6----4----6----|-6------7--4------------------|

 

Tab comments (0)
No comment yet :(
Need help, a tip to share, or simply want to talk about this song? Start the discussion!

You must be logged in to join the discussion
or Register

 

About this song

No information about this song.