One (Intro) Uke tab by Metallica

Ukulele Tab without chords.

Add tab to your SongBook
Tablature / ChordsFont size: A- A A+

Don't know how to read a tab or a chord ? Check out these uke lessons:

Detailed guide to strumming and picking
How to read uke tabs
Reading chord diagrams

A|---9----5~----9----5~-|---9----5~----9----5-10~-|
E|-7----7---------------|-7----7------------------|
C|----------------------|-------------------------|
G|------------0----0----|------------0----0-------|


A|---9----5~----9----5~-|---9----5~------------|
E|-7----7-----5----5----|----------------------|
C|----------------------|--------------2----2--|
G|----------------------|-0----0-----0----0----|

 

Tab comments (3)
You must be logged in to join the discussion
or Register

 

freeza36 avatar
flag for US(ISO2) (Aurora)
Great job. I love this song, and up until now I could only play it on guitar
07 Dec 2012
Djammer avatar
There are already numerous tabs for this.
06 Dec 2012
panda2 avatar
flag for BH(ISO2) (Damascus)
Brilliant!
06 Dec 2012
About this song

"One" was written in November 1987 by Metallica's principal composers