One Uke tab by Metallica

Ukulele Tab without chords.

Add tab to your SongBook
Tablature / ChordsFont size: A- A A+

Don't know how to read a tab or a chord ? Check out these uke lessons:

Detailed guide to strumming and picking
How to read uke tabs
Reading chord diagrams

|--2--9--2--5--|--0--9--0--5--|-----9-----5--|-----2-----2-------| 
|--------------|--------------|--3-----3-----|--0-----2----------|
|--------------|--------------|--------------|-------------------|
|-(0)----------|--------------|--------------|-------------------|
|--2--9--2--5--|-----9-----5--|--2--9--2--5--|-----9-----5-------|
|--------------|--3-----3-----|--------------|--3-----3----------|
|*-------------|--------------|--------------|-------------------|
|*-------------|--------------|--------------|--------------0----|
|--2--9--2--5--|--0--9--0--5--|-----9-----5--|-----2-----2-------|
|--------------|--------------|--3-----3-----|--0-----2----------|
|--------------|--------------|--------------|------------------*|
|--------------|--------------|--------------|------------------*|
|-----2-----2-----2--2h4--2-|--2--9--2--5--5--9--0-|-----9-----5--9--9--5--|
|--0-----2-----0------------|----------------------|--3-----3--------------|
|---------------------------|----------------------|-----------------------|
|---------------------------|----------------------|-----------------------|
|--2--9--2--5--5--9--0--|-----9-----5--9--9--5--|--2--9--2--5--5--9--5--|
|-----------------------|--3-----3--------------|-----------------------|
|-----------------------|-----------------------|-----------------------|
|-----------------------|-----------------------|-----------------------|
|--0--9--0--5--9--9-----|-----9-----5--5--9--5--|-----7-9--7-----4--|
|-----------------------|--3-----3--------------|--0----------2-----|
|-----------------------|-----------------------|-------------------|
|--------------------0--|-(0)-------------------|-------------------|
H P H P
|-----------------------|-----------------------|-----2-5-2----2-5-2-----|
|--3---------3--5-------|------5--------5-------|--3---------------------|
|-----2---2--------4----|*--2--------2----------|------------------------|
|-----------------------|*--------0--------0----|------------4--------0--|
S
|-----------3-----|-----------2-----2---|-----2------------|
|--1-----1--------|--0-----------0------|--0---------------|
|-----------------|--------------------*|--------------0---|
|-----0--------0--|-----4--0-----------*|--------0--4------|
H P P P
|-----------------------|-----5-4-----5-4---------5----|-5-4----------------|
|-----0-2---------------|------------------------------|--------------------|
|-----------------------|------------------------------|--------------------|
|---------2---4b6b4-----|---------4-------2------------|-----4--------------|
S S S P H S S H
|-------7---7-6---6-4---4-2--------|------------------------4-5-|
|-----2----------------------------|----------------------------|
|---------2------------------------|----------------------------|
|---------------------4-----0-2----|-2-4--------------2-4-------|
S P S
|-4-------------4---5-4-----|-------------------------|-------------|
|---------------------------|-------------------------|-------------|
|---------------------------|-------------------------|-------------|
|---------2-4-----------2---|-2-4---------------------|-------------|

|------------------x------------|------------------------------------|
|-----------------}-----------|--------------------------------|
|-----------------{x----------|--------------------------------|
|-----------------}11----16-----|-14--12--11--12--7------------------|
P P P S
|--------------------------------|---------------------------------|
|--------------------------------|----------3----3-----------------|
|-----2---2-----4-2-4-------6--4-|-6-----6------------6------------|
|-------6------------------------|---------------------------------|

|---------------------------------------------|-----------------------
|--------------3--5-------------3-------------|-----------------------
|-----------6----------------6----------------|-6---------------------
|-----4--7-------------4--7--------4----4--7--|----4--6----7---9------

-----------------------|------------------------------|
-----------------------|------------------------------|
-----------------------|------------------------------|
---7----6----4----6----|-6------7--4------------------|
P H P
|-(-)------------------------|----------------------|----------------------|
|-------------5--2-----2-----|-5------5----3---2----|-2-3-2----------------|
|--2---------------2---------|--------------------4-|--------2-------------|
|----------------------------|----------------------|----------------------|
S ~~~~~ P P
|-------------------|-------------------------|-------------------------------------|
|---------5---------|-3--------------------|-------------------------------|
|-------------------|----------------------|-------------------------------|
|--7--5-4-----4---5-|---------14--11---7--11--|-14----14--12---11----12--11---------|
P P P P P P
|-----------------------------|-----------------------------------------------------------|
|--------------------------|-----------------------------------------------|
|--------------------------|-----------------------------------------------|
|-7-------7---11----12---14---|--16--14--12--16--14--12--16--14--12--11--12--9--11--7-----|
S S S
|------|-------------------------------|-----------------------------------|
|------|--3---3--3-2-------------------|-----------------------------------|
|------|--2---2--2----2----------------|--7-----7----7----7----7-----------|
|------|-------------------------------|--5-----5----5----5----4-----------|
P P P P P P P P P P P P
|--------------------------------------------------------------------------------------------|
|--------------------------------------------------------------------------|
|--------------------------------------------------------------------------|
|---17--14--10----17--14--10----17--14--10----17--14--10----17--14--10----17--14--10---------|
P H P P H P
|---------------------------------|
|-----------------------------|
|-----------------------------|
|---17--9--10--9----17--9--10--9--|
--3--2--3--0-|--2--5--5--5--5-|-2-----2-----|---3-----3--|
-------------|--3--3--3--3--3-|----2-----2--|------3-----|
--4--2--4--2-|-----7--7--7--7-|-6-----6-----|---7-----7--|
-------------|----------------|-4-----4-----|---5-----5--|
--7--7--7--7--7--5-|-5--5--5--5--5\-|---2-----2-----|-3--3-3--3-----3-----|
-------------------|----------------|------2-----2--|------------3-----3--|
--7--7--7--9--7----|-6--6--6--7--6--|---6-----6-----|-7--7-7--7-----7-----|
-------------------|----------------|---4-----4-----|-5--5-5--------5-----|
--7------(7)---|--------------2--|--------------2-(2)-------------2-3-|
--0------(0)---|--0-0-0-0-0-0-0--|--0-0-0-0-0-0-------0-0-0-0-0-0-----|
--7------(7)---|--------------4--|--------------4-(4)-------------4-5-|
---------------|-----------------|------------------------------------|
--------------2---------------2-|--------------2---------------2-3--|
--0-0-0-0-0-0-0---0-0-0-0-0-0-0-|--0-0-0-0-0-0-0---0-0-0-0-0-0------|
--------------------------------|------------------------------4-5--|
--------------------------------|-----------------------------------|
--------------7-(7)-------------7-8-|-------------5-(5)-------------5/8--|
--0-0-0-0-0-0-------0-0-0-0-0-0-----|-0-0-0-0-0-0-------0-0-0-0-0-0------|
------------------------------------|------------------------------------|
------------------------------------|------------------------------------|
--------------7-(7)-------------7-8-|-------------5-(5)-------------5----|
--0-0-0-0-0-0-------0-0-0-0-0-0-----|-0-0-0-0-0-0-------0-0-0-0-0-0---7--|
------------------------------------|------------------------------------|
------------------------------------|------------------------------------|
--------------2---------------2--|--------------2---------------2-3--|
--0-0-0-0-0-0-0---0-0-0-0-0-0-0--|--0-0-0-0-0-0-0---0-0-0-0-0-0------|
---------------------------------|------------------------------4-5--|
---------------------------------|-----------------------------------|
--------------2--------------2--------3--|
--0-0-0-0-0-0----0-0-0-0-0-0----0-0-0----|
--------------4--------------4--------5--|
-----------------------------------------|
---------------2---------|--------2--------3--|
--0-0-0-0-0-0-----0-0-0--|--0-0-0----0-0-0----|
---------------4---------|--------4--------5--|
-------------------------|--------------------|
P P P P P P P P P P P P P P P P
A------------------------------------------------------------------------------------------|
E--------------------------------------------------------------------------|
C--------------------------------------------------------------------------|
G-16--12--9---16--12--9--16--12--9--16--12--9--16--12--9--16--12--9--16--12--9--16--12--9--|
P P P P P P P P P P P P P P P P
A------------------------------------------------------------------------------------------|
E--------------------------------------------------------------------------|
C--------------------------------------------------------------------------|
G-17--12--9---17--12--9--17--12--9--17--12--9--17--12--9--17--12--9--17--12--9--17--12--9--|
P P P P P P P P P P P P P P P P
A----------------------------------------------------------------------------------|
E--------------------------------------------------------------------------|
C--------------------------------------------------------------------------|
G-11--7--4---11--7--4--11--7--4--11--7--4--11--7--4--11--7--4--11--7--4--11--7--4--|
P P P P P P P P P P P P P P P P
A----------------------------------------------------------------------------------|
E--------------------------------------------------------------------------|
C--------------------------------------------------------------------------|
G-12--7--4---12--7--4--12--7--4--12--7--4--12--7--4--12--7--4--12--7--4--12--7--4--|
P P P P P P P P P P P P P P P P
A--------------------------------------------------------------------------|
E-------5---------5--------5--------5--------5--------5--------5--------5--|
C--------------------------------------------------------------------------|
G-9--5------9--5-----9--5-----9--5-----9--5-----9--5-----9--5-----9--5-----|
P P P P P P P P P P P P P P P P
A----------------------------------------------------------------------------------|
E-------5---------5--------5--------5--------5--------5--------5--------5--|
C--------------------------------------------------------------------------|
G-10--5------10--5-----10--5-----10--5-----10--5-----10--5-----10--5-----10--5-----|
P H P P P P P P P P P P P
A---------------------------------------|------------------------------7---|
E-------------------5-----------5-----3-|----5-----3----2----3----2--------|
C---------------------------------------|----------------------------------|
G-9--4--6--9--4--9-----9--4--9-----9----|-9-----9----9----9----9----9------|
S
A------------------------------------------|-----------------------------------------
E---------------------------------------|-----------------------------------
C---------------------------------------|-----------------------------------
G--4--4--4---4--4--4---4---4---11--11--11--|-12--12--12---14--14--14---7--7--7-------
~ ~~~~~~~~S S
A-----------------|----------------------------|--------------------------------|
E-------------|-22^24-------22^24----22^24-|-------------------------------|
C-------------|----------------------------|-------------------------------|
G-14--14--14--14--|----------------------------|---------------9--------12------|
P H P H P H P
A-------------------------------------------------|---------------------------------------
E------------------------------------------|--------------------------------
C------------------------------------------|--------------------------------
G-14--12---9--7--9--11---12--14--12--9--7--9--11--|-12--14--12--9--7--9--11--12--14--12---
P P H
A----------------|----------------------------------------------------|
E--------------|--------------------------------------------|
C--------------|--------------------------------------------|
G-9--9--11---12--|-14--12---7--9--11---12--14--12---9---7--12--14-----|
P P P P P P P P
A-----------------------------------------------------------------------|
E-----------------------------------------------------------|
C-----------------------------------------------------------|
G-16--14--12--7---16--14--12--7---16--14--12---7---16--14--12---7-------|
P P P P P
A--------------------------------------------------------------------|
E-----------------------------------------------------------|
C-----------------------------------------------------------|
G-16--14-----7---16--14-----7---16--14------7---16--14--12-----------|

A-------------------------------------------------|-------------------------------------------------|
E-------------------------------------|---^-----------------^---------------|
C-------------------------------------|-------------------------------------|
G-10--12--12--10--12--12--10--12--12--10--12--12--|-15--16--12--10--12--12--15--16--12--10--12--12--|
P P P P P H P S
A---------------------------------------------|--------------------------------------|
E-------------------------------------|-------------------------------------|
C-------------------------------------|-------------------------------------|
G-16--14--12--14-----14--12--11--12-----------|-11--9--7--9------7--9--7--5---7------|
H P S H P P P
A------------------------------------------|--------------------------------|
E------------------------------5-----5--3--|-5--3-----3-----3---5---5---5---|
C------------------------------------------|--------------------------------|
G-5--7--5--4---5------4--5--4-----4--------|-------9-----9--------^---^---^-|
P ~~~~~
A----------------------------|---------------------|------------------------|
E-5-----5----------5--3------|-3------3------------|----6--5--3-------------|
C----------------------------|---------------------|------------------------|
G---^4----^4------v-------9--|----9-------9--8--7--|-4----------------------|

A-----------7---------------7-----|-----------7---------------7-----|-9------------9------|
E---------------------------|---------------------------|-------------------|
C---------10------------10----|---------10------------10----|-12-----------12-----|
G-12---12---7-^---12---12--7-^--|-12---12---7-^---12---12--7-^--|-9-^-v---v-^-9-^v^-|

A---9---------7-------7---|----------7--------------7----|-9-------9-------7-------------|
E---------------------|------------------------|----------------------------|
C---12--------10-----10--|--------10-----------10---|-12------12------10------------|
G-v(9-)-^-v--7--12--7--|-12---12--7-^--12---12--7-^-|-9------9------7-^-------7--|
~~~~~~
A----------------------------------------------------|-----------------------------------------||
E----------------------------------------|---------------------------------||
C----------------------------------------|---------------------------------||
G-10--12--12---10--12--12---10--12--12---10--12--12--|-10--12--12---10--12--12---10--12--------||
A---------------------------5-5-5----|-5-5-5----4-4-4---3-3-3---2-2-2-----|
E-3-3-3--3-3-3--3--------------------|------------------------------------|
D------------------------------------|------------------------------------|
G------------------------------------|------------------------------------|
---------------2---------|--------2--------3--|
--0-0-0-0-0-0-----0-0-0--|--0-0-0----0-0-0----|
---------------4---------|--------4--------5--|
-------------------------|--------------------|
A---------------------------5-5-5----|-5-5-5----4-4-4---3-3-3---2-2-2-----|
E-0-0-0--0-0-0--0--------------------|------------------------------------|
D------------------------------------|------------------------------------|
G------------------------------------|------------------------------------|

A-----------------------9--9--9------|------------7-----4---4---4---9--------|
E-3--3--3--2------------5--5--5------|--3------------------------5--------|
C-4--4--4--2-----2-------------------|--3---------------------------------|
G-----------^----4-------------------|---^--------4-----4--4--4-----------|

A-4---9-----9-------9-----------------|-------7--------------7-----7-------|
E----5--3--5-------5--3--2--3--------|-3--2-----2--------2----------------|
C-------4-------------4--2--4--------|-4--2-----2--------2-----2----------|
G-4----------------------------------|-------6--------------6--4--6-------|

A-----------------------9--9--9------|------------7-----4---4---4---9--------|
E-3--3--3--2------------5--5--5------|--3------------------------5--------|
C-4--4--4--2-----2-------------------|--3---------------------------------|
G-----------^----4-------------------|---^--------4-----4--4--4-----------|

A-4---9-----9-------9-----------------|-5---4---9--4---------4---9-----9-------|
E----5--3--5-------5--3--2--3--------|-------5--------------5--3--5-------|
C-------4-------------4--2--4--------|-------------------------4----------|
G-4----------------------------------|-5--4-----4--------4----------------|

A-----------------------9--9--9------|------------7-----4---4---4---9--------|
E-3--3--3--2------------5--5--5------|--3------------------------5--------|
C-4--4--4--2-----2-------------------|--3---------------------------------|
G-----------^----4-------------------|---^--------4-----4--4--4-----------|

A-4---9-----9-------9-----------------|-------7--------------7-----7-------|
E----5--3--5-------5--3--2--3--------|-3--2-----2--------2----------------|
C-------4-------------4--2--4--------|-4--2-----2--------2-----2----------|
G-4----------------------------------|-------6--------------6--4--6-------|

A-----------------------9--9--9------|------------7-----4---4---4---9--------|
E-3--3--3--2------------5--5--5------|--3------------------------5--------|
C-4--4--4--2-----2-------------------|--3---------------------------------|
G-----------^----4-------------------|---^--------4-----4--4--4-----------|

A-4---9-----9-------9-----------------|-------7--------------7-----7-------|
E----5--3--5-------5--3--2--3--------|-3--2-----2--------2----------------|
C-------4-------------4--2--4--------|-4--2-----2--------2-----2----------|
G-4----------------------------------|-------6--------------6--4--6-------|

A-7----------------------------------|------------------------------------|
E-------5-------------5--3--5--------|-5--3--2--3--------2--0-----0-------|
C----2-----2-------2-----------------|-------------------------2----------|
G-6--4--6--4-------4--6--4--6--------|-6--4--2--4--------4--2--0--2-------|
---------------2---------|--------2--------3--|
--0-0-0-0-0-0-----0-0-0--|--0-0-0----0-0-0----|
---------------4---------|--------4--------5--|
-------------------------|--------------------|
-------------5--------5--|--------5--------5--|
--3-----3----3--3--3--3--|--3--3--3--3--3--3--|
-------------7--------7--|--------7--------7--|
-------------------------|--------------------|
---------------2---------|--------2--------3--|
--0-0-0-0-0-0-----0-0-0--|--0-0-0----0-0-0----|
---------------4---------|--------4--------5--|
-------------------------|--------------------|
-------------5--------5--|--------5--------5--|
--3-----3----3--3--3--3--|--3--3--3--3--3--3--|
-------------7--------7--|--------7--------7--|
-------------------------|--------------------|
---------------2------2--|--------3--------3--|
--0-0-0-0-0-0---------0--|--1--1--1--1--1--1--|
---------------4------4--|--------5--------5--|
-------------------------|--------------------|
---------------2------2--|--------5--------5--|--------5--------5--|
--0-0-0-0-0-0---------0--|--3--3--3--3--3--3--|--3--3--3--3--3--3--|
---------------4------4--|--------7--------7--|--------7--------7--|
-------------------------|--------------------|--------------------|
---------------2---------|--------2--------3--|
--0-0-0-0-0-0-----0-0-0--|--0-0-0----0-0-0----|
---------------4---------|--------4--------5--|
-------------------------|--------------------|
A--2-2-2--2-2-2--2------------2-2-2--|--2-2-2--2-------------------------||
E--0-0-0--0-0-0--0------------0-0-0--|--0-0-0--0-------------------------||
C--4-4-4--4-4-4--4------------4-4-4--|--4-4-4--4-------------------------||
G------------------------------------|-----------------------------------||

 

Tab comments (2)
You must be logged in to join the discussion
or Register

 

ukebeast17 avatar
flag for US(ISO2) (Towaco)
WOW!!!
18 Aug 2012
 avatar
flag for (ISO2)
I like the tab! It could be in a better format but that's not too important. Great tab.
11 Aug 2012
About this song

No information about this song.