Mario Bro's Theme Song! Uke tab by Mario Bro's

Ukulele Tab without chords.

4.2/10
PrintAdd tab to your SongBook

Tablature / Chords (

Font size: A- A A+

Artist: 
Album:  unknown
Key: unknownTablature (no chords)
4-4-4-0-7---0------------0-7-9-5-7-4-------0---------------0-7-9-5-7-4--------
---------0---0-2-4-3-2--0------------5-7-4--0--2-4-3-2-0--0------------5-7-4--
--------------1-------------------------------1----------------------------------
--------------------------------------------------------------------------------

0-9-8-7---------------------9-8-7------7s12--12-12-12--
------------0-2-5-2-5----------------------------------
-------------------------------------------------------
---------5-6----------4----------5-6------------------

0-9-8-7---------------------3-2-0-------------------------------------------------------------- RESTART
------------0-2-5-2-5--------------0-0-0---5-5-5-7-9-7-5-5-5----5-5-5-7-9s0-5-5-5-7-9-7-5-5-5 RESTART
------------------------------------------------------------------------------------------------ RESTART
---------5-6----------4------------------------------------------------------------------------- RESTART

Uke tab by , 30 Jul 2011

Tab comments (4)

Something to say?
Share your strumming patterns, chords or tips to play this tab! ;)
Filter by:
Darkrye24 avatar
flag for US(ISO2) (Arlington)
Missing a LOT of notes but fun to play!
24 Aug 2011
Comment
Elssa avatar
flag for NA(ISO2) (Shoecity)
Not that good, missing a lot of notes
07 Aug 2011
Comment
deadlysauce avatar
I clicked a higher star rating than I meant to...missing a lot of notes and some are just wrong.
04 Aug 2011
Comment
ChrisGodz avatar
Missing a "--4--" at the beginning --4-4-4--0-4*-7...
03 Aug 2011
Comment

Top Tabs & Chords by Mario Bro's, don't miss these songs!

About this song: Mario Bro's Theme Song!

No information about this song.

Did you cover Mario Bro's Theme Song! on your Ukulele? Share your work!
Submit a cover