La Vie En Rose Uke tab by Louis Armstrong

8 Chords used in the song: C, Cmaj7, C6, Dm, G7, D, F, Dm7

Add tab to your SongBook
Tablature / ChordsFont size: A- A A+

Don't know how to read a tab or a chord ? Check out these uke lessons:

Detailed guide to strumming and picking
How to read uke tabs
Reading chord diagrams

A|-3-2-0-----3-2-0------2-0---------2-0-2-|
E|-0-----3-0---0---3-0----0-3-0---0---1-1-|
C|-0-----------0-------0--0-----0-----2-2-|
G|-0-----------0----------0-----------2-0-|

C C Cmaj7 Cmaj7 C6 C6 Dm Dm G7 G7
Hold me close and hold me fast, the magic spell you cast, this is la vie en rose


A|-5-3-2-0---3-2-0-------2-0-------2-0-2--|
E|-1-------1---1---3-1-----1-3-1-----1-1--|
C|-2-----------2-------2---2----1-2--2-2--|
G|-0-----------0-----------------------0--|

D D G7 G7 Dm Dm Dm Dm G7 G7
When you kiss me heaven sighs, and thou I close my eyes, I see la vie en rose


A|-3-2-0-----3-2-0------2-0-------3-------|
E|-0-----3-0---0---3-0----0-3-0---1-------|
C|-0-----------0-------0--0-----0-0-------|
G|-0-----------0----------0-------2-------|

C C Cmaj7 Cmaj7 C6 C6 F F
When you press me to your heart, I'm in a world apart, a world where roses bloom



A|-3-5-5--3-5-5--3-5-3-0--5-5--3-5-5--3-7-|
E|-----------------0---3------------------|
C|-----------------0---1------------------|
G|-----------------0---0------------------|


A|--5-3-0---------------------------------|
E|--------3-------------------------------|
C|----------------------------------------|
G|----------------------------------------|

And when you speak angels sing from above, everyday words seem to turn into love songs


A|-3-2-0-----3-2-0------2-0---0-2-3-------|
E|-0-----3-0---0---3-0----1-3-1-1-0-------|
C|-0-----------0-------0--2---2-2-0-------|
G|-0-----------0----------2---0-0-0-------|

C C Cmaj7 Cmaj7 Dm7 Dm7 G7 G7 C C
Give your heart and soul to me and life will always be la vie en rose

 

Tab comments (1)
You must be logged in to join the discussion
or Register

 

15Rabbit5 avatar
flag for SE(ISO2) (Hudiksvall)
Sounds amazing! This tab is really good and the melody is just at point! 9/10
21 Jan 2018
About this song

No information about this song.