Imagine Uke tab by John Lennon

8 Chords used in the song: C, Cmaj7, F, Am, Dm, G, G7, E7

Add tab to your SongBook
Tablature / ChordsFont size: A- A A+

Don't know how to read a tab or a chord ? Check out these uke lessons:

Detailed guide to strumming and picking
How to read uke tabs
Reading chord diagrams

Into/Verses
C C Cmaj7 Cmaj7 F F
A -------------2---------------------
E -0---0---0-------1---1---1---------
C ---0---0---0---0---0---0---0-------
G -0---0---0---0---2---2---2---2/3/4- repeat x2 for intro, then x4 for verse

Pre-chorus
F F Am Am Dm Dm F F G G C C G7 G7
A ----------------------------------2---2---2---3---2---2---2---2--
E -1---1---0---0---1---1---1---1-----3---3---3---3---1---1---1---1-
C ---0---0---0---0---2---2---0---0-2---2---2---4---2---2---2---2---
G -2---2---2---2---2---2---2---2------------------------------------

Chorus
F F G G C C E7 E7
A----------2---2---3---3---2---2--
E -1---1-----3---3---0---0---0---0-
C ---0---0-2---2---0---0---2---2---
G -2---2---------------------------- repeat x4, but on the 4th time, do C instead of E7

 

Tab comments (1)
You must be logged in to join the discussion
or Register

 

ziomozaur avatar
Best tab of Imagine ever
13 Apr 2012
About this song

"Imagine" is a song by John Lennon, which appears on his 1971 album, Imagine. It was released as a single in the same year, and reached number three in the U.S. Billboard charts, and number six in the United Kingdom. In 2004, Rolling Stone magazine voted "Imagine" the third greatest song of all time. Former U.S. president Jimmy Carter said, "In many countries around the world