Merry Go Round - Howls Moving Castle Uke tab by Joe Hisaishi

Ukulele Tab without chords.

9.6/10
PrintAdd tab to your SongBook

Tablature / Chords (Full Song)

Font size: A- A A+

Artist: 
Album:  unknown
Key: unknownTablature (no chords)
A|-----1-5-5-3-1-0-1---1---5-10-10-10-8--6-8---|
E|---3-----------------------------------------|
C|-2-------------------------------------------|
G|-------------------0-------------------------|



A|-0-5-8-12--10-8-7-6-7-10-8-----7-5-1-3-5-3-----0-|
E|-------------------------------------------------|
C|-------------------------------------------------|
G|-------------------------------------------0-----|



A|--0-------1-5--5-3-1-0-1---1-5-10--10-10-12-8-6-8---|
E|-------3--------------------------------------------|
C|----2-----------------------------------------------|
G|-------------------------0--------------------------|


A|-0-5-8-12-10-8-7-6-7-10-8--7-5-3-1--0-2-4-5-|
E|--------------------------------------------|
C|--------------------------------------------|
G|--------------------------------------------|


A|-5-6--5--3-1-0-1-3-5-----6--5-3-1-3-5------
E|---------------------1-1-------------------
C|-------------------------------------------
G|-------------------------------------------


A|--5--5-4-5-8-7-5-4--7-0-----0------------5---|
E|-------------------------------5-6-5-4-5-----|
C|---------------------------------------------|
G|---------------------------------------------|

Uke tab by , 08 Jul 2018

Tab comments (4)

Something to say?
Share your strumming patterns, chords or tips to play this tab! ;)
Filter by:
stacyhayes946 avatar
I can't wait to feel the heat of your touch ignite every inch of me. f1nd me on stacyhayes_mooo_com change _ to dot
10 Jul 2024
Comment
hadley_06 avatar
love it(◍•ᴗ•◍)❤
05 Mar 2022
Comment
Briannamb avatar
obsessed
10 Jan 2021
Comment
aanderson18 avatar
i love it!
15 Jul 2018
Comment

Top Tabs & Chords by Joe Hisaishi, don't miss these songs!

About this song: Merry Go Round - Howls Moving Castle

No information about this song.

Did you cover Merry Go Round - Howls Moving Castle on your Ukulele? Share your work!
Submit a cover