Dragon(beginning) (Intro) Uke tab by Jake Shimabukuro

Ukulele Tab without chords.

Add tab to your SongBook
Tablature / ChordsFont size: A- A A+

Don't know how to read a tab or a chord ? Check out these uke lessons:

Detailed guide to strumming and picking
How to read uke tabs
Reading chord diagrams

#---------7---------
-------0-----------
-----6------------- (repeat 4 times)
---0---------------

---------5----------
-------0------------ (repeat 4 times)
-----6--------------
---0----------------

---------4----------
-------0------------ " "
-----6--------------
---0----------------

------2-------2------
----0-------0--------
--2-------2----------
--------0-------0----

------2--x-----------
----0----------------
--1------------------
---------------------

 

Tab comments (1)
You must be logged in to join the discussion
or Register

 

YesSirIndeed avatar
flag for US(ISO2) (Loveland)
Good Job
02 Apr 2011
About this song

No information about this song.