Bohemian Rhapsody Part 1 Uke tab by Jake Shimabukuro

Ukulele Tab without chords.

Add tab to your SongBook
Tablature / ChordsFont size: A- A A+

Don't know how to read a tab or a chord ? Check out these uke lessons:

Detailed guide to strumming and picking
How to read uke tabs
Reading chord diagrams

A|5-5-5-5-5--4-4-4h5p4-2-0-3-3-3-3/5-3-----2-2-2h3p2-0---2-2-2-2--2-2-2-3-5---7--7-7-7-
E|3-----3----3-------------1-----1/3-1-0-0-1-----------3-1-----1--1-----1-3-3-5--5-----
C|4-----4----4-------------2-----2/4-2-----2-------------2-----2--2-----2-4---7--7-----
G|-------------------------------------------------------------------------------------

A|7-7-5-5-5h7p5-3---------------------------7-7-7-7-5-10-101010108-8---10--------7---5-
E|5---5------------5-7-7-6-5-5-6-7-7-6-5-5-6-5---5---5-7----------7-----7---7---7------
C|7---5--------------6-6-5-4-4-5-6-6-5-4-4-5-7---7---5-7----------7---7-7-7---7-----7--
G|-------------------------------------------------------------------------------------
___________x3__

A|--------------------------------------7---5-9-9-7-7-6-6-7-7
E|--7/8-810p8-7\5-5-7-810p8-7\5---7---7-------7-7-5-5-4-4-5-5
C|7-6/7-7-----6\4-4-6-7-----6\4-7---7-----7------------------
G|-----------------------------------------------------------

This is just the first part. More will come if it is rated well.

 

Tab comments (1)
You must be logged in to join the discussion
or Register

 

Duke of Uke4 avatar
flag for SE(ISO2) (Höganäs)
nice tab! it's so hard to find good fingerpicking tabs of interesting songs. Thank you for submitting this!
02 Jul 2013
About this song

No information about this song.