While My Ukulele Gently Weeps Uke tab by Jake Shimabukuro

Ukulele Tab without chords.

Add tab to your SongBook
Tablature / ChordsFont size: A- A A+

Don't know how to read a tab or a chord ? Check out these uke lessons:

Detailed guide to strumming and picking
How to read uke tabs
Reading chord diagrams

A----------------5-----6--3--3-----5-----6--3--3-----5-----6--8--8-----6-----5--
E--------6/8-----------8--6--6-----------6--5--5-----------5--4--4-----------4--
C-----3--0-------0--------0--------0--------0--------0--------0--------0--------
G--0----------0-----0-----0-----0-----0-----0-----0-----0-----0-----0-----0-----

A--3--10--6p3-----8--5-----5h8p5-----5--3--3--3--3--3--3--3--3--3--3--3--3--2--2--2--2--
E--3--11--3-------6-----6---------6-----5--5--5--5--5--5--5--5--4--4--4--4--3--3--3--3--
C--0--0---0-------5---------------------3--3--3--3--3--3--3--3--3--3--3--3--2--2--2--2--
G--0--0---0----0--0---------------------0--0--0--0--0--0--0--0--0--0--0--0--0--0--0--0--

A----------------5-----6--3--3-----5-----6--3--3-----5-----6--8--8-----6-----5--
E--------6/8-----------8--6--6-----------6--5--5-----------5--4--4-----------4--
C-----3--0-------0--------0--------0--------0--------0--------0--------0--------
G--0----------0-----0-----0-----0-----0-----0-----0-----0-----0-----0-----0-----

A--3--10--6p3-----8--5-----5h8p5-----5--6--6--6--3--2--10----------10--3--7--5--7--14--10--
E--3--11--3-------6-----6---------6-----3--3--3--3--1--10------10------0--0--------0---0---
C--0--0---0-------5---------------------3--3--3--3--2--11--11----------0--0--------11--11--
G--0--0---0----0--0---------------------3--3--3--3--0--0---------------0--0--------0---0---

A--7--5--7--10--7--5--7--5--7--10--7--5-------7-------8--------10--
E--0--0--0--0---0--5--5--------0---0--3----------------------------
C--0--------11--7--5--5--------11--7--5--5/7-----7/9-----9/11------
G--2--------0---0--0--0--------0---0--0----------------------------

A--3--7--5--7--14--10--7--5--7--10--7--5--7--5--7--10--7--5--0--2--
E--0--0--------0---0---0--0--0--0---0--5--5--------0---0--1--1--1--
C--0--0--------11--11--0--------11--7--5--5--------11--7--0--2--2--
G--0--0--------0---0---2--------0---0--0--0--------0---0--0--2--0--

A----------------5-----6--3--3-----5-----6--3--3-----5-----6--8--8-----6-----5--
E--------6/8-----------8--6--6-----------6--5--5-----------5--4--4-----------4--
C-----3--0-------0--------0--------0--------0--------0--------0--------0--------
G--0----------0-----0-----0-----0-----0-----0-----0-----0-----0-----0-----0-----

A--3--10--6p3-----8--5-----5h8p5-----5--3--3--3--3--3--3--3--3--3--3--3--3--2--2--2--2--
E--3--11--3-------6-----6---------6-----5--5--5--5--5--5--5--5--4--4--4--4--3--3--3--3--
C--0--0---0-------5---------------------3--3--3--3--3--3--3--3--3--3--3--3--2--2--2--2--
G--0--0---0----0--0---------------------0--0--0--0--0--0--0--0--0--0--0--0--0--0--0--0--

A----------------5-----6--3--3-----5-----6--3--3-----5-----6--8--8-----6-----5--
E--------6/8-----------8--6--6-----------6--5--5-----------5--4--4-----------4--
C-----3--0-------0--------0--------0--------0--------0--------0--------0--------
G--0----------0-----0-----0-----0-----0-----0-----0-----0-----0-----0-----0-----

A--3--10--6p3-----8--5-----5h8p5-----5--6--6--6--3--2--10----------10--3--7--5--7--14--10--
E--3--11--3-------6-----6---------6-----3--3--3--3--1--10------10------0--0--------0---0---
C--0--0---0-------5---------------------3--3--3--3--2--11--11----------0--0--------11--11--
G--0--0---0----0--0---------------------3--3--3--3--0--0---------------0--0--------0---0---

A--7--5--7--10--7--5--7--5--7--10--7--5-------7-------8--------10--
E--0--0--0--0---0--5--5--------0---0--3----------------------------
C--0--------11--7--5--5--------11--7--5--5/7-----7/9-----9/11------
G--2--------0---0--0--0--------0---0--0----------------------------

A--3--7--5--7--14--10--7--5--7--10--7--5--7--5--7--10--7--5--0--2--
E--0--0--------0---0---0--0--0--0---0--5--5--------0---0--1--1--1--
C--0--0--------11--11--0--------11--7--5--5--------11--7--0--2--2--
G--0--0--------0---0---2--------0---0--0--0--------0---0--0--2--0--

A--6--6--6--6--6--6--6--6--6--6--6--6--6--6--6--6--6--6--6--6--
E--8--8--8--8--8--8--8--8--8--8--6--6--6--6--6--6--6--6--6--6--
C--0--0--0--0--0--0--0--0--0--0--0--0--0--0--0--0--0--0--0--0--
G--0--0--0--0--0--0--0--0--0--0--0--0--0--0--0--0--0--0--0--0--

A--6--6--6--6--6--6--6--6--6--6--6--6--6/8--8--8--8--8--8--8--8--
E--5--5--5--5--5--5--5--5--5--5--4--4--4/6--6--6--6--6--6--6--6--
C--0--0--0--0--0--0--0--0--0--0--0--0--0----0--0--0--0--0--0--0--
G--0--0--0--0--0--0--0--0--0--0--0--0--0----0--0--0--0--0--0--0--

A--6--6--6--6--6--6--6--6--6--6--6--6--6--6--6--6--6--6--6--6--
E--8--8--8--8--8--8--8--8--8--8--6--6--6--6--6--6--6--6--6--6--
C--0--0--0--0--0--0--0--0--0--0--0--0--0--0--0--0--0--0--0--0--
G--0--0--0--0--0--0--0--0--0--0--0--0--0--0--0--0--0--0--0--0--

A--6--6--6--6--6--6--6--6--6--6--6--6--6/8--8--8--8--8--8--8--8--
E--5--5--5--5--5--5--5--5--5--5--4--4--4/6--6--6--6--6--6--6--6--
C--0--0--0--0--0--0--0--0--0--0--0--0--0----0--0--0--0--0--0--0--
G--0--0--0--0--0--0--0--0--0--0--0--0--0----0--0--0--0--0--0--0--

A--6--6--6--6--6--6--6--6--6--6--8--8--8--8--8--8--8--8--8--8--
E--8--8--8--8--8--8--8--8--8--8--6--6--6--6--6--6--6--6--6--6--
C--0--0--0--0--0--0--0--0--0--0--0--0--0--0--0--0--0--0--0--0--
G--0--0--0--0--0--0--0--0--0--0--0--0--0--0--0--0--0--0--0--0--

A--10--10--10--10--10--10--10--10--10--10--11--11--11--11--11--11--11--11--11--11--
E--5---5---5---5---5---5---5---5---5---5---4---4---4---4---4---4---4---4---4---4---
C--0---0---0---0---0---0---0---0---0---0---0---0---0---0---0---0---0---0---0---0---
G--0---0---0---0---0---0---0---0---0---0---0---0---0---0---0---0---0---0---0---0---

A--6--6--6--6--6--6--6--6--6--6--8--8--8--8--8--8--8--8--8--8--
E--8--8--8--8--8--8--8--8--8--8--6--6--6--6--6--6--6--6--6--6--
C--0--0--0--0--0--0--0--0--0--0--0--0--0--0--0--0--0--0--0--0--
G--0--0--0--0--0--0--0--0--0--0--0--0--0--0--0--0--0--0--0--0--

A--10--10--10--10--10--10--10--10--10--10--11--11--11--11--11--11--11--11--11--11--
E--5---5---5---5---5---5---5---5---5---5---4---4---4---4---4---4---4---4---4---4---
C--0---0---0---0---0---0---0---0---0---0---0---0---0---0---0---0---0---0---0---0---
G--0---0---0---0---0---0---0---0---0---0---0---0---0---0---0---0---0---0---0---0---

A--15--15--15--15--15--15--15--15--15--15--13--13--13--13--13--13--13--13--13--13--
E--11--11--11--11--11--11--11--11--11--11--11--11--11--11--11--11--11--11--11--11--
C--12--12--12--12--12--12--12--12--12--12--10--10--10--10--10--10--10--10--10--10--
G--0---0---0---0---0---0---0---0---0---0---0---0---0---0---0---0---0---0---0---0---

A--13--13--13--13--13--13--13--13--13--13--13--13--13--13--13--13--13--13--13--13--
E--11--11--11--11--11--11--11--11--11--11--11--11--11--11--11--11--11--11--11--11--
C--9---9---9---9---9---9---9---9---9---9---8---8---8---8---8---8---8---8---8---8---
G--0---0---0---0---0---0---0---0---0---0---0---0---0---0---0---0---0---0---0---0---

A--15--15--15--15--15--15--15--15--15--15--13--13--13--13--13--13--13--13--13--13--
E--11--11--11--11--11--11--11--11--11--11--11--11--11--11--11--11--11--11--11--11--
C--12--12--12--12--12--12--12--12--12--12--10--10--10--10--10--10--10--10--10--10--
G--0---0---0---0---0---0---0---0---0---0---0---0---0---0---0---0---0---0---0---0---

A--13--13--13--13--13--13--13--13--13--13--13--13--13--13--13--13--13--13--13--13--
E--11--11--11--11--11--11--11--11--11--11--11--11--11--11--11--11--11--11--11--11--
C--9---9---9---9---9---9---9---9---9---9---8---8---8---8---8---8---8---8---8---8---
G--0---0---0---0---0---0---0---0---0---0---0---0---0---0---0---0---0---0---0---0---

A--15--15--15--15--15--15--15--15--15--15--13--13--13--13--13--13--13--13--13--13--
E--11--11--11--11--11--11--11--11--11--11--11--11--11--11--11--11--11--11--11--11--
C--12--12--12--12--12--12--12--12--12--12--10--10--10--10--10--10--10--10--10--10--
G--0---0---0---0---0---0---0---0---0---0---0---0---0---0---0---0---0---0---0---0---

A--13--13--13--13--13--13--13--13--13--13--13--13--13--13--13--13--13--13--13--13--
E--11--11--11--11--11--11--11--11--11--11--11--11--11--11--11--11--11--11--11--11--
C--9---9---9---9---9---9---9---9---9---9---8---8---8---8---8---8---8---8---8---8---
G--0---0---0---0---0---0---0---0---0---0---0---0---0---0---0---0---0---0---0---0---

A----------------5-----6-----------5--6--3--5--6--3--2--3--
E--------6/8-----------8-----------3--3--3--3--3--4--3--0--
C-----3--0-------0--------0--2--3--3--3--5--5--5--3--2--0--
G--0----------0-----0--------------0--0--0--0--0--0--0--0--

 

Tab comments (1)
You must be logged in to join the discussion
or Register

 

jkjkjk avatar
flag for US(ISO2) (rochester)
Great representation of the real thing!
30 Mar 2015
About this song

No information about this song.