Bohemian Rhapsody Uke tab by Jake Shimabukuro

0 Chords used in the song:

Add tab to your SongBook

View these chords for the Baritone

Transpose chords:
Chord diagrams:
Pin chords to top while scrolling
Tablature / ChordsFont size: A- A A+

Don't know how to read a tab or a chord ? Check out these uke lessons:

Detailed guide to strumming and picking
How to read uke tabs
Reading chord diagrams

#hello its Dharmawick :D !!!
#like,Rate and comment
#thanks, Enjoy :) !!!


Intro:

G|-5-5-5-5---5-|-4-4-5-4-2-0-|-3-3-3-5---3-|----10-10-12-10-------|
C|-3-3-3-3---3-|-3-3-3-3-3-3-|-2-2-2-2---2-|----10-10-------10----|
E|-4-4-4-4---4-|-4-4-4-4-4-4-|-2-2-2-2---2-|-2/-11-11----------11-|
A|-0-0-0-0---0-|-0-0-0-0-0-0-|-2-2-2-2---2-|----------------------|

G|-2-2-2-2-|-2-2-2-3-5-----|-5/7------10----10-|
C|-3-3-3-3-|-3-3-3-------3-|-7/8---12----10----|
E|-4-4-4-4-|-2-2-2---------|-------------------|
A|-0-0-0-0-|-0-0-0---------|-------------------|

G|-7-7-7-7---7-|-5-5-7-5-3-0---2-3-|-6-6-5---4-4-5-|-6-6-5---4-4-5-|
C|-8-8-8-8---8-|-2-2-2-2-2-2-------|-6-6-5---4-4-5-|-6-6-5---4-4-5-|
E|-9-9-9-9---9-|-2-2-2-2-2-2-------|---------------|---------------|
A|-------------|-2-2-2-2-2-2-------|---------------|---------------|

G|-7-7-7-7-5---10-|-10-10-10-10-9---------|-9---------------|
C|-8-8-8-8-7---11-|-9--9--9--9--10---10---|-10----------2/3-|
E|-0-0-0-0-7---11-|-9--9--9--9--9-------9-|-9---------------|
A|----------------|-----------------------|-----------------|

Verse 1:

G|-2---2---7---5---|-2---2---7---5---|
C|-3-3---3---3---3-|-3-3---3---3---3-|
E|-2---------------|-2---------------|
A|-0---------------|-0---------------|

G|-0h2-2-2---7---5---|-0h2-2---9----7-0h2-|-3-5-3-2-0---0-2-|-3-5-3-2-0-----0-|
C|-3-------3---3---3-|-3-----3---10-------|-0-------0--4----|-0-------2-------|
E|-2-----------------|-4------------------|-4-------4-------|-4-------2---2---|
A|-0-----------------|-0------------------|-0-------0-------|-0-------2-------|

G|-2---2---2---2-5-|-9---7-7---6-6---7-7-|-10---10-10---10-10-7-----|-0---0-0-0---0-|
C|-3-3---3---3-----|-7---7-7---7-7---7-7-|-8----8--8----8--8----8-7-|-2---2-2-2---2-|
E|-2---------------|-4---4-4---4-4---4-4-|-9----9--9----8--8--------|-2---2-2-2---2-|
A|-0---------------|---------------------|--------------------------|-2---2-2-2---2-|

G|-3---2-2-2-2-2-|
C|-3---3-3-3-3-3-|
E|-4---2-2-2-2-2-|
A|-5---0-0-0-0-0-|

G|-7-7-7---7---7-7-7-7-5---7-8-|-7---7---7---7-7-|-8---7-7-5---5-|
C|-8-8-8---8---8-8-9-8---------|-8---8---8---8-8-|-5---5-5-5---5-|
E|-7-7-7---7---7-7-7-7---------|-9---9-9-8---8-8-|-5---5-5-5---5-|
A|-----------------------------|-----------------|---------------|

G|-2-2-5-5-7-7-8-8-10-|-7-7-7-5-3-10---5h7-|-3---3---3-------|---3-3-----3---3---3-|
C|-3-3-7-7-7-7-7-7-7--|-8-8-8-7-5-12-------|-5-----5-1-------|-4-3---3-5---3---2---|
E|-2-2-7-7-7-7-7-7-7--|-0-0-0--------------|-4-4-----0-------|---4-----------------|
A|-0-0-0-0-0-0-0-0-0--|--------------------|---------1-3-1-3-|---5-----------------|

Verse 2:

G|-2---2---7---5---|-2---2---7---5---|
C|-3-3---3---3---3-|-3-3---3---3---3-|
E|-2---------------|-2---------------|
A|-0---------------|-0---------------|

G|-0h2-2-2---7---5---|-0h2-2---9----7-0h2-|-3-5-3-2-0---0-2-|-3-5-3-2-0-----0-|
C|-3-------3---3---3-|-3-----3---10-------|-0-------0--4----|-0-------2-------|
E|-2-----------------|-4------------------|-4-------4-------|-4-------2---2---|
A|-0-----------------|-0------------------|-0-------0-------|-0-------2-------|

G|-2---2---2---2-5-|-9---7-7---6-6---7-7-|-10---10-10---10-10-7-----|
C|-3-3---3---3-----|-7---7-7---7-7---7-7-|-8----8--8----8--8----8-7-|
E|-2---------------|-4---4-4---4-4---4-4-|-9----9--9----8--8--------|
A|-0---------------|---------------------|--------------------------|

G|-0---0-0-0---0-|-3---2-2-2-2-2-|
C|-2---2-2-2---2-|-3---3-3-3-3-3-|
E|-2---2-2-2---2-|-4---2-2-2-2-2-|
A|-2---2-2-2---2-|-5---0-0-0-0-0-|

G|-7-7-7---7---7-7-7-7-5---7-8-|-7---7---7---7-7-|-8---7-7-5---5-|-2-2-5-5-7-7-8-8-10-|
C|-8-8-8---8---8-8-9-8---------|-8---8---8---8-8-|-5---5-5-5---5-|-3-3-7-7-7-7-7-7-7--|
E|-7-7-7---7---7-7-7-7---------|-9---9-9-8---8-8-|-5---5-5-5---5-|-3-3-7-7-7-7-7-7-7--|
A|-----------------------------|-----------------|---------------|-0-0-0-0-0-0-0-0-0--|

Solo:

G|-7-7-7-5-3-10---7-|-12---2h3-0-2h3-0-2h3-|-5---5-7-8-10-|-12---10-8-7-8-7-5-|-0-2-0-----------|
C|-8-8-8-7-5-12-----|-12-------------3-----|-5------------|-------------------|-------3---------|
E|-0-0-0------------|----------4-----------|-5------------|-------------------|---------0-1-0---|
A|------------------|----------------------|-7------------|-------------------|---------------2-|

G|-3---3-5-7-10---7-|-12---2h3-0-2h3-0-2h3-|-5-----------5-|-----13-13-13---1---|
C|-3-3-------8------|-12-------------3-----|-5-------------|-1------------------|
E|-4---------9------|-9--------4-----------|-5---2-4-5---5-|-1-1----------------|
A|-5----------------|----------------------|-7-------------|-1------------------|

Bridge 1:

G|-1-1-1-1-1-1-1-1-|-2-1-1-0-0-1---2-1-1-0---1-|-9-------9--------------9----|
C|-2-2-2-2-2-2-2-2-|-4-2-2-1-1-2---4-2-2-1---2-|-9-9--9--9-9--9--8-8-9--9-9--|
E|-----------------|---------------------------|---10-10---10-10-9-9-10---10-|
A|-----------------|---------------------------|-----------------------------|

G|-5-5-5-5-6---6-|-7-7-7-7-8---8-|-9---4-4-5-4------|-----4-4-5-4------|
C|-6-6-6-6-6---6-|-7-7-7-7-7---7-|------------------|------------------|
E|-5-5-5-5-5---5-|-8-8-8-8-8---8-|--------------1-1-|-2-1----------1-1-|
A|---------------|-9-9-9-9-------|------------------|------------------|

G|-----4-4-5-4-2-0-|-----10-10-10---------|-------------------------|
C|-----------------|-4------------12------|-4-3-3-2---3---4-3-3-2-3-|
E|-2-1-------------|-----------------12-9-|-3-2-2-1---2---3-2-2-1-2-|
A|-----------------|----------------------|-------------------------|

G|-12-10-10-9----10---12-12-10---9--9--10-|-12---12-12-10---10-10---9---9-9-10-|
C|-13-12-12-11---12---13-13-12---11-11-12-|-12---12-12-10---10-10---9---9-9-10-|
E|-0--0--0--0----0----0--0--0----0--0--0--|-9----9--9--7----7--7----6---6-6-7--|
A|-0--0--0--0----0----0--0--0----0--0--0--|------------------------------------|

G|---3---3---3---3-|---------------------------|
C|-5---3---2---1---|-4-4-3---2-2-3---4-4-3-3-2-|
E|-----------------|-3-3-2---1-1-2---3-3-2-2-1-|
A|-----------------|---------------------------|

Bridge 2:

G|---3---3---5-5-7-8--7-5-15-15-15-|---3-----5-5-7-8--7-5-15-15-15-|
C|-3---3-0---7-7-8-10-8-7----------|-3-3-3---7-7-8-10-8-7----------|
E|-------0-------------------------|---0---------------------------|
A|-------0-------------------------|---0---------------------------|

G|---3---5-5-7-8--7-5-15-15-15-|-5-7-8--7-5-15-15-15-|-5-7-8--7-5-3-3-3-|-1---------|
C|-3-3-3-7-7-8-10-8-7----------|-7-8-10-8-7----------|-7-8-10-8-7-------|---3-------|
E|---0-------------------------|---------------------|------------------|-----3-0---|
A|---0-------------------------|---------------------|------------------|---------4-|

G|-----2-1-6-2-3-|-10-10-12-10-10-10-12-10-|---------------|
C|-4-3-4-3-6-3-3-|-------------------------|-3-3-5-3-2-0---|
E|---------7-2-4-|-------------------------|-4-4-5-4-2-0-2-|
A|---------8-0-5-|-------------------------|---------------|

G|---3---3-0-0-----------7---7-|-2---2-2-2-2---2---2---2-2-2-2---2-|
C|-3-0---0-1-1---2-2-2-2-7---7-|-3---3-3-3-3---3---1---1-1-1-1---1-|
E|---0---0-0-0---3-3-3-3-7---7-|-2---2-2-2-2---2---2---2-2-2-2---2-|
A|---0---0-2-2---4-4-4-4-------|-----------------------------------|

G|-2---2-2-2-2---2---10-10-10-10-10-10-10-10-|
C|-3---3-3-3-3---3---10-10-10-10-10-10-10-10-|
E|-2---2-2-2-2---2---11-11-11-11-11-11-11-11-|
A|-------------------------------------------|

Solo:

G|-3----------------3----------------|-3------------------5---------------|
C|---0h1---3-0-3-1-----0h1---3-0-3-1-|----0h1---3-0-3-1-----2/3---5-2-5-3-|
E|-----------------------------------|------------------------------------|
A|-----------------------------------|------------------------------------|

G|-8-8-8-7-7-7-5-5-3---3-|-2-3-5---5-5-5-5---13-|-8-8-8-7-7-7-5-5-3---3-|-8-10-12---12-12-12-12-|
C|-5-5-5-5-5-5-5-5-5---5-|-3-3-3---3-3-3-3---10-|-5-5-5-5-5-5-5-5-5---5-|-8-8--8----8--8--8--8--|
E|-----------------------|-------------------10-|-----------------------|-----------------------|
A|-----------------------|----------------------|-----------------------|-----------------------|

G|-8----8--8--8--8--8----8--8--8--8--8--|-7---5---5-5-5-5-5-|
C|-8----8--8--8--8--8----8--8--8--8--8--|-8---7---7-7-7-7-7-|
E|-9----9--9--9--9--9----9--9--9--9--9--|-9---7---7-7-7-7-7-|
A|-10---10-10-10-10-10---10-10-10-10-10-|-------------------|

G|-8--8--8--8--8---7-7-7-7---7---5---5-5-5-5-|
C|-8--8--8--8--8---8-8-8-8---8---7---7-7-7-7-|
E|-9--9--9--9--9---9-9-9-9---9---7---7-7-7-7-|
A|-10-10-10-10-10----------------------------|

G|-3---3-3-3-5---3---3-3-3-5---2-2-2-|
C|-1---1-1-1-3---1---1-1-1-3---1-1-1-|
E|-----------------------------------|
A|-----------------------------------|

G|-3----------------3----------------|-3------------------5---------------|
C|---0h1---3-0-3-1-----0h1---3-0-3-1-|----0h1---3-0-3-1-----2/3---5-2-5-3-|
E|------------------------------------------------------------------------|
A|------------------------------------------------------------------------|

G|-6-8--8---8--10-10---10-12-12-|-3---3-3-3-3---3---8---8-8-8-8---8-8-|-12---12-12-12-12---12-|
C|-6-8--8---8--10-10---10-12-12-|-4---4-4-4-4---4---8---8-8-8-8---8-8-|-12---12-12-12-12---12-|
E|-8-10-10--10-12-12---12-14-14-|-3---3-3-3-3---3-------9-9-9-9---9-9-|-11---11-11-11-11---11-|
A|------------------------------|-------------------------------------|-----------------------|

Outro:

G|-2-3-5-3-5-7-5-7-8--7-8--10-8--10-0-2-3-5\-|
C|-3-5-7-5-7-8-7-8-10-8-10-12-10-12-1-3------|
E|-------------------------------------------|
A|-------------------------------------------|

G|-3-----7-10-----|-2-----5-10-----|-3-0-0-7-12-----|
C|---3/8--------3-|---3/7--------3-|----------------|
E|----------------|----------------|--------------0-|
A|----------------|----------------|----------------|

G|-2---2-3-0---2---2-3-0-|-5-----7h8p7---12-|-6---7-9-10-|
C|-0-0---0-----0-0---0---|-3-3--------------|-7---7---7--|
E|-4-----------4---------|-4----------------|-6-6-----7--|
A|-----------------------|------------------|------------|

G|-0---0h2-2---2-|-7-5-----2-----|-7-5-----2---|-7---5-7-3--------3-|-7-5-5-----------|
C|-1-------3---3-|-5---8-0-3-3---|-5---8-7-3---|-5-8-----4-4-3----4-|-5-----8-8-5---7-|
E|-0-------4---4-|-5-------4-----|-5-------4---|-5-------5-----5--5-|-5---------------|
A|-0-------0---0-|---------0-----|---------0---|--------------------|-----------------|

G|-3-------0-2-0-2-|-3-------0-2-0-2-|-2---------------|-0-0---0-10-8-8-7-|-7-----|
C|-0---0-3---------|-0---0-3-2-------|-3-----3-3-1-1-0-|-0---0---10-------|-9-9---|
E|-0-0-------------|-0-0-----3-------|-2---2-----------|-1-------10-------|-9---9-|
A|-0---------------|-0---------------|-0---------------|-0----------------|-------|

G|---5---5---5---5-|-5---------|
C|-7-7-5-5-4-5-3-3-|-2---------|
E|-7---6---5---4---|-2---------|
A|-----------------|-2---------|


| / slide up
| \ slide down
| h hammer-on
| p pull-off

 

Tab comments (1)
You must be logged in to join the discussion
or Register

 

duhbearz avatar
flag for US(ISO2) (San Diego)
How do I download the tab fil s?The ads are obscuring the right outermost parts of the song even after resizing.
09 May 2019
About this song

No information about this song.