Song Of Storms. Uke tab by Zelda

Ukulele Tab without chords.

9/10
PrintAdd tab to your SongBook

Tablature / Chords (Full Song)

Font size: A- A A+

Artist: 
Album:  unknown
Key: unknownTablature (no chords)
Correction d'une tablature déjà présente;
A-----5-----5--7--8--7--8--7--3--0---
E---1-----1--------------------------
C-2-----2----------------------------
G------------------------------------

A-0----------------------------------
E-----1--3--5--5---1--3--------------
C---2------------2------4------------
G------------------------------------

A-----5-----5--7--8--7--8--7--3--0---
E---1-----1--------------------------
C-2-----2----------------------------
G------------------------------------

A-0----------------------------------
E-----1--3--5--5---------------------
C---2------------2-------------------
G------------------------------------

Uke tab by , 09 Jun 2013

Tab comments (0)

No comment yet :(
Need help, a tip to share, or simply want to talk about this song? Start the discussion!

Something to say?
Share your strumming patterns, chords or tips to play this tab! ;)

Top Tabs & Chords by Zelda, don't miss these songs!

About this song: Song Of Storms.

No information about this song.

Did you cover Song Of Storms. on your Ukulele? Share your work!
Submit a cover