Song Of Time / Temple Of Time - The Legend Of Zelda: Ocarina Of Time Uke tab by Koji Kondo

Ukulele Tab without chords.

9/10
PrintAdd tab to your SongBook

Tablature / Chords (

Font size: A- A A+

Artist: 
Album:  unknown
Key: unknownTablature (no chords)
A||------0-------------|-------0-------------|
E||--------------------|--1------------------|
C||-----------2--------|------------2--------|
G||--------------------|---------------------|


|-------0--3--2---------|--------0---------------|
|--1---------------3----|--1--3---------------0--|
|-----------------------|-------------2----0-----|
|-----------------------|------------------------|


|-------------------||
|-------------------||
|--2----------------||
|-------------------||

# This, specifically, is the "Song of Time". To play the music
# heard in the Temple of Time, simply play the above section
# twice, then:

|------------------------|-------------------|
|--------0---------0--1--|-------------------|
|--2--0-------0----------|--2----------------|
|------------------------|-------------------|


|------------------------|-------------------|
|--------0---------1--3--|-------------------|
|--2--0-------0----------|--2----------------|
|------------------------|-------------------|


|--0--3--2----3----0----|--3---------0----------|
|-----------------------|-------3---------------|
|-----------------------|-----------------2--0--|
|-----------------------|-----------------------|


|--------------------|------------------------|
|--0-----------------|--1--3--1----3----0-----|
|-------2------------|---------------------0--|
|--------------------|------------------------|

# (repeat ad
# nauseum)
|---------------------|------------------||
|--1----0-------------|-----------------o||
|------------2--------|-----------------o||
|---------------------|------------------||

Uke tab by , 06 Dec 2009

Tab comments (5)

Something to say?
Share your strumming patterns, chords or tips to play this tab! ;)
Filter by:
bam72091 avatar
flag for US(ISO2) (Narrangansett)
its for finger picking songs as opposed to chordes. so if it says three on the c string your gonna hold the 3rd fret and only play that one note
11 Nov 2018
Comment
jacibunny avatar
mobile flag for US(ISO2) (Orlando)
how do you read these types of music??
30 Jan 2018
Question
Ukulelinator avatar
Thanks, zalt! Funny that I didn't spot that typo before. . . :D
19 Jul 2010
Correction
zalt avatar
the first note should just be the open A string
17 Jul 2010
Correction
DavidDhani avatar
flag for CA(ISO2) (Ottawa)
Perfect
20 Dec 2009
Comment

Top Tabs & Chords by Koji Kondo, don't miss these songs!

About this song: Song Of Time / Temple Of Time - The Legend Of Zelda: Ocarina Of Time

No information about this song.

Did you cover Song Of Time / Temple Of Time - The Legend Of Zelda: Ocarina Of Time on your Ukulele? Share your work!
Submit a cover