Heathens Uke tab by Twenty One Pilots

Ukulele Tab without chords.

9.6/10
PrintAdd tab to your SongBook

Tablature / Chords (Full Song)

Font size: A- A A+

Album: 
Year:  2016
Key: unknownTablature (no chords)
A|-2-3-2---2-3-2-----2-3-2---2-3-2--------|
E|-------3-------3-0-------3-------3-0----|
C|----------------------------------------|
G|----------------------------------------|



A|-7-5-3-7-5-3-7-7--7-5-3-7-5-3-3-7-7-----|
E|-----------------7------------------7---|
C|----------------------------------------|
G|----------------------------------------|

⇢ Not happy with this tab? View 13 other version(s)

Uke tab by , 26 Jul 2016

Tab comments (3)

Something to say?
Share your strumming patterns, chords or tips to play this tab! ;)
Filter by:
Julianisinlove avatar
flag for LV(ISO2) (Liepaja)
whoa, this is amazing.
15 Oct 2021
Comment
laloy avatar
THIS IS FUCKING COOL
20 Jul 2020
Comment
Serahface91 avatar
mobile flag for US(ISO2) (Bakersfield)
awesome little tab!
easy,thanks for posting it.
02 Jan 2017
Comment

Top Tabs & Chords by Twenty One Pilots, don't miss these songs!

About this song: Heathens

The song Heathens by twenty one pilots was supposedly leaked by the band members themselves on June 15 2016. Someone tweeted out "- .- -.- . .. - ... .-.. --- .--" on twenty one pilots's official Twitter. The tweet is morse code meaning "take it slow", which is a part of the lyrics in Heathens. This is the main reason why people claimed that the band members themselves leaked it. There were some stormy hours for the members of the skeleton clique. Read more on Last.fm.

Did you cover Heathens on your Ukulele? Share your work!
Submit a cover