Old Macdonald Had A Farm Uke tab by Traditional

Ukulele Tab without chords.

Add tab to your SongBook
Tablature / ChordsFont size: A- A A+

Don't know how to read a tab or a chord ? Check out these uke lessons:

Detailed guide to strumming and picking
How to read uke tabs
Reading chord diagrams

Oh, Old MacDonald had a farm, E E-I-E E-I-O...
A|---------------------------------
E|---------------------------------
C|---------------------------------
G|-0-----5-5-5-0-2-2-0----9-9-7-7-5

And on that farm he had a [animal name], E E-I-E E-I-O...
A|---------------------------------
E|---------------------------------
C|---------------------------------
G|-0--5-5-5-0-2-2-0----9-9-7-7-5---

With a [animal noise twice] here and a [animal noise twice] there
A|----------------------
E|----------------------
C|----------------------
G|-0-5-5-5---0-5-5-5----

Here a [animal noise], there a [animal noise], everywhere a [animal noise twice]
A|----------------------
E|----------------------
C|----------------------
G|-555---555---5555-5---

Old MacDonald had a farm, E E-I-E E-I-O...
A|---------------------------------
E|---------------------------------
C|---------------------------------
G|-5-5-5-0-2-2-0----9-9-7-7-5------

Have Fun! :D

 

Tab comments (2)
You must be logged in to join the discussion
or Register

 

Thatoneukeguy avatar
flag for US(ISO2) (Converse)
Awesome. x)
27 Mar 2011
 avatar
flag for (ISO2)
brilliant, and not only was it approved by me, my 6 year old sister too!!
26 Feb 2011
About this song

No information about this song.