I Surrender All Uke tab by Traditional

Ukulele Tab without chords.

Add tab to your SongBook
Tablature / ChordsFont size: A- A A+

Don't know how to read a tab or a chord ? Check out these uke lessons:

Detailed guide to strumming and picking
How to read uke tabs
Reading chord diagrams

A|--0----------------0----------------------|
E|--2-------2-----------------2--------------|
C|--2---2-------2--------2--------2------------|
G|--2--------------------------------------|

# This is the intro. Repeat twice.

A|--0------------------- 0------------------|
E|--2----2----3---2------ 0---0----2-----0--------|
C|--2---------------------1-----------------|
G|--2---------------------2-----------------|

1.All to Je- sus I Surr-en-der
2. I will ev- er Love and trust Him

A|--0-------------------0-------------------|
E|--2---------3---2-----0---2------------------|
C|--2----2--------------1--------2-----------|
G|--2-------------------2-------------------|

1.All to Him. I free-ly give
2. In His pre-sence Dai- ly live



A|--5--4---2---0--2-----------------2--------2---|
E|----------------3------------3--------3--|
C|----------------4---------4---------4----|
G|----------------0-----------------------|
I Surr-en- der All




A|-2---2---0---------0-----------2----------2---|
E|-3------------3----2-------2-----------2----|
C|-4-----------------2----2-----------2-------|
G|-0-----------------2---------------------|
I Surr-en- der All






A|--0-----------2---0----5----4---4-----2-------|
E|--2-----3---------------------------------|
C|--2--------------------------------------|
G|--2--------------------------------------|

All to thee my bles- sed Sav- ior



A|--0----------------------0---------------|
E|--------3----2----0------2------------------|
C|-------------------------2---------------|
G|-------------------------2---------------|
I surer-ender all

 

Tab comments (0)
No comment yet :(
Need help, a tip to share, or simply want to talk about this song? Start the discussion!

You must be logged in to join the discussion
or Register

 

About this song

No information about this song.