Amazing Grace Uke tab by Traditional

Ukulele Tab without chords.

Add tab to your SongBook
Tablature / ChordsFont size: A- A A+

Don't know how to read a tab or a chord ? Check out these uke lessons:

Detailed guide to strumming and picking
How to read uke tabs
Reading chord diagrams

A|---------0-----0----------------------|
E|-----1-----1-------3--1---------------|
C|--0-----------------------2--0---0----|
G|--------------------------------------|



A|-------0------0-------0---3-----0-----|
E|--1-------1--------3------------------|
C|--------------------------------------|
G|--------------------------------------|



A|--3----0------0-----------------------|
E|----------1-------3---1---------------|
C|--------------------------2-----------|
G|--------------------------------------|



A|----------------0------0--------------|
E|-----------1-------1-------3---1------|
C|--0----0------------------------------|
G|--------------------------------------|

 

Tab comments (2)
You must be logged in to join the discussion
or Register

 

Gmbola avatar
flag for US(ISO2) (houston)
two thumbs down
02 Dec 2017
 avatar
flag for (ISO2)
Try my duet! Hope you like it!:)
11 Dec 2014
About this song

No information about this song.