Birthday Song Uke tab by Traditional

Ukulele Tab without chords.

Add tab to your SongBook
Tablature / ChordsFont size: A- A A+

Don't know how to read a tab or a chord ? Check out these uke lessons:

Detailed guide to strumming and picking
How to read uke tabs
Reading chord diagrams

A---------------------------------------------------
E---------------1--0--------------------3--1--------
C---0--0--2--0------------0--0---2--0---------------
G---------------------------------------------------

A---------3--0------------------1--1--0-------------
E----------------1--0--------------------1--3----1--
C---0--0----------------2---------------------------
G---------------------------------------------------

 

Tab comments (2)
You must be logged in to join the discussion
or Register

 

project8 avatar
flag for PH(ISO2) (project 8, quezon city)
thanks
23 Dec 2012
tamia98 avatar
it's pretty accurate and sounds great.
19 Dec 2012
About this song

No information about this song.