Megalovania - Undertale Uke tab by Toby Fox

Ukulele Tab without chords.

9.7/10
PrintAdd tab to your SongBook

Tablature / Chords (Full Song)

Font size: A- A A+

Artist: 
Album:  unknown
Key: unknownTablature (no chords)
# Intro:

A|-----5-------------------5----------------|
E|-------5-4-3-1---1-3-------5-4-3-1---1-3--|
C|-2-2-----------2------2------------2------|
G|------------------------------------------|


A|-----5-------------------5----------------|
E|-------5-4-3-1---1-3-------5-4-3-1---1-3--|
C|---1-----------2------0------------2------|
G|------------------------------------------|
# -repeat intro a few times-

# Part 1:

A|------------------------------------------|
E|-1-1-1-1-1-------1-1-1-3-4-3-1---1-3------|
C|-----------2-2-----------------2----------|
G|------------------------------------------|


A|-------------3------5-5-5---5-3-----------|
E|-1-1-1-3-4-5---5----------5---------------|
C|------------------------------------------|
G|------------------------------------------|


A|------------------------------5-----------|
E|-5-5-5-5-5-3-3----5-5-5-5-5-3---5-3-------|
C|------------------------------------------|
G|------------------------------------------|



A|-5--------3----------------3--------------|
E|---5-3------3------------3----------------|
C|-------5------5-4--2-4-5------------------|
G|------------------------------------------|

# Part 2:

A|------------------------------------------|
E|----------------3-4-3----3\1/3-3----------|
C|----------5-2-5-------5-------------------|
G|------------------------------------------|
#(aternatively do something like 32323-3 in the end instead of the slide)

A|-----3---------------------3-4------------|
E|-4-5---5-4-3-1------1-3-4------4-4-3-1-3--|
C|----------------2-4-----------------------|
G|------------------------------------------|


A|-------8-7-5-7-8-10-7-12-12-11-10-9-8-7-6-5-4---6-|
E|-1-3-5-8-7-5-7-8-10-7-12-12-11-10-9-8-7-6-5-4---6-|
C|--------------------------------------------------|
G|--------------------------------------------------|
# (if picking both strings is too hard you can play it on the A A string only)

# -repeat Part 2-

# Part 3 (pretty slow):

A|----------------------------------------|
E|----------------------------------------|
C|-2-5-4-2-5-----2-5-4-2-2----------------|
G|----------------------------------------|

# -Repeat intro-

A|-8-7--3-7-5---------8-7--3-7-5----------|
E|-8-7--3-7-5---1-3---8-7--3-7-5---1-3----|
C|------------2------------------2--------|
G|----------------------------------------|

# -it loops from here-

# (I had to simplify/skip some parts because they just dont work on ukulele only)

Uke tab by , 05 Jan 2016

Tab comments (18)

Something to say?
Share your strumming patterns, chords or tips to play this tab! ;)
Filter by:
thatsnailboi avatar
I'd recommend doing an extra 5 on E after the 3 before the 5 on A in the third bit of part 1, and in the slow bit (part 3) at the end after 2-2 doing an extra 1 after an appropriate pause
21 Jul 2021
Comment
thatsnailboi avatar
oooooh this is so fun thank you for posting!
20 Jul 2021
Comment
BABABOI avatar
flag for PH(ISO2) (Ormoc City)
Tons of plucking or should i say... SkeleTON
22 Oct 2020
Comment
rockinpc avatar
This is a challenge to play and I like it, first time attempting a song like this can’t wait to see my friends reactions when I start playing the intro in the background
16 Sep 2019
Comment
KitKatUke46 avatar
flag for JP(ISO2) (Tokyo)
THANK YOU! Whoever made this, I LOVE YOU!
14 Aug 2019
Comment
UNDERTALEFAM avatar
Yes. Thankyou
12 May 2019
Comment
ThatOneMewer avatar
WHATS GOOD nigggggggggggggggggggggggggga
17 Dec 2018
Comment
 avatar
Deleted account mobile
VERY EASY AND SOUNDS AMAZING!
02 Dec 2018
Correction
SkyElixir avatar
I learned how to read tabs now! Amazing tabs by the way!
15 Jul 2018
Comment
chira_wolf avatar
I didn't know how to read tab and them I saw this and actually it helped me
27 May 2017
Comment
KalaKiwi avatar
flag for PH(ISO2) (Pasig City)
OH WOW. I learned how to read tab and wow...
02 Apr 2017
Comment
KalaKiwi avatar
flag for PH(ISO2) (Pasig City)
I love this song! too bad i can't read tab...
30 Mar 2017
Comment
Osamah007 avatar
what do the "xxxx..." mean? besides that this sounds amazing and thank you for writing this
25 Jan 2017
Comment
roseverdict avatar
Ohhhhhhh my dooooooog this is amazing!!! Definitely gonna be one of the first songs I learn when my uke comes!
13 Jan 2017
Comment
COOLSKELETON95 avatar
flag for US(ISO2) (UGHHHHH I HaTE PAPERWORK)
WOW THIS TAB IS SO EPIC IT MAKES MY INDEX AND MIDDLE FINGER GO RED WHEN I TRY TO PLAY IT FAST! no, seriously though how did you play this extremely fast song, man people in the internet are so talented.
08 Apr 2016
Comment
Awoken avatar
Thank you so much for the nice comments! :)
If there are any questions comming up, please feel free to message me, I'd be glad to help.
15 Mar 2016
Comment
Blyue avatar
This is beyond cool. Thanks so much for posting it on here! :)
19 Feb 2016
Comment
CelloFellow avatar
Haha this is really awesome! Thanks for posting!
15 Feb 2016
Comment

Top Tabs & Chords by Toby Fox, don't miss these songs!

About this song: Megalovania - Undertale

No information about this song.

Did you cover Megalovania - Undertale on your Ukulele? Share your work!
Submit a cover