Il Vento D'oro (giorno's Theme) (JoJo's Bizzare Adventure: Golden Wind) Uke tab by Themes

Ukulele Tab without chords.

9.4/10
PrintAdd tab to your SongBook

Tablature / Chords (Full Song)

Font size: A- A A+

Artist: 
Album:  unknown
Key: unknownTablature (no chords)
A|--------------------------------2-1-----|
E|-1-1-1---1-4-1-------1-1-1---1------4---|
C|-------3-------0-3---------3----------3-| x3
g|----------------------------------------|


A|----------------------------------------|
E|-1-1-1---1-4-1--------------------------|
C|-------3--------------------------------|
g|----------------------------------------|


A|-3-2---1-2-1-------1-3-8----------------|
E|-----4-------4-3-4---------------6-4-3--|
C|---------------------------5-7-8--------|
g|----------------------------------------|


A|-6-4-3-2---1-2-1-------1-3-8-8-10---1---|
E|-----4-4-4---3---4-3-4---1-7------4-----|
C|-----5-5-----1-----4--------------5---1-|
g|----------------------------------------|


A|-----1-3-2-----1-2-1-------1-3-8--------|
E|---4---4-4---4---1---4-3-4---4-7--------|
C|-0-----5-5-------1-----1-----5-7-5-7-8--|
g|----------------------------------------|


A|---------6-4-3-2---1-3-8----------------|
E|---6-4-3-----4-4-4---4-7-------9-8-7----|
C|-------------5-5---------5-7-8----------|
g|----------------------------------------|


A|-11---8---------------------------------|
E|---12-----------------------------------|
C|----------------------------------------|
g|----------------------------------------|

Uke tab by , 19 May 2020

Tab comments (4)

Something to say?
Share your strumming patterns, chords or tips to play this tab! ;)
Filter by:
anhduydck avatar
I, Giorno Giovanna, have a ukulele.
21 Mar 2022
Comment
Bagutsla avatar
mobile flag for FR(ISO2) (Forest-sur-Marque)
I hope my dream will be fulfill with this song
03 Sep 2020
Comment
chipsonidk avatar
geodude gorgonzola
13 Aug 2020
Strumming pattern
patricknam avatar
flag for US(ISO2) (La Crescenta)
I, Giorno Giovana, have a dream that I can master this song.
10 Jul 2020
Comment

Top Tabs & Chords by Themes, don't miss these songs!

About this song: Il Vento D'oro (giorno's Theme) (JoJo's Bizzare Adventure: Golden Wind)

No information about this song.

Did you cover Il Vento D'oro (giorno's Theme) (JoJo's Bizzare Adventure: Golden Wind) on your Ukulele? Share your work!
Submit a cover