Dirty Old Town Uke tab by The Pogues

Ukulele Tab without chords.

10/10
PrintAdd tab to your SongBook

Tablature / Chords (Full Song)

Font size: A- A A+

Artist: 
Year:  1985
Key: unknownTablature (no chords)
A|-------------------------------
E|--5-7-9---5-7-9---5------------
C|4-------------------4----------
G|-------------------------------

A|-------------------------------
E|-9--12--14----14--12--9--7-9-7-
C|-------------------------------
G|-------------------------------

A|-------------------------------
E|-12--14--12--9----5-7-9--5-----
C|----------------------------4--
G|-------------------------------

A|-------------------------------
E|--5-9-7---7-5-4-5--------------
C|4------------------------------
G|-------------------------------

⇢ Not happy with this tab? View 1 other version(s)

Uke tab by , 17 Sep 2019

Tab comments (0)

No comment yet :(
Need help, a tip to share, or simply want to talk about this song? Start the discussion!

Something to say?
Share your strumming patterns, chords or tips to play this tab! ;)

Top Tabs & Chords by The Pogues, don't miss these songs!

About this song: Dirty Old Town

No information about this song.

Did you cover Dirty Old Town on your Ukulele? Share your work!
Submit a cover