Hotel California (Intro) Uke tab by The Eagles

Ukulele Tab without chords.

Add tab to your SongBook
Tablature / ChordsFont size: A- A A+

Don't know how to read a tab or a chord ? Check out these uke lessons:

Detailed guide to strumming and picking
How to read uke tabs
Reading chord diagrams

a-2-------5----------------0--------4--------2---2--------
E---2---2-----2-----2---------0---0-----0------0----------
d---------------6-1---1-------------------4---------------
g-----4-----4-----------3-------2-----2------------1------

a-----2---2------2-----5--------2---2-----2---------------
E--3-----------------------2------0-----0--------2--------
d-------2------2---2----------4-------------6--1---1------
g-----------0--------2---2------------1--------------3----

 

Tab comments (2)
You must be logged in to join the discussion
or Register

 

appu1989 avatar
flag for IN(ISO2) (Delhi)
good
04 Aug 2016
Robyndesaray avatar
sounds like a nickelback song more than anything
28 Feb 2016
About this song

Hotel California is the title song from the Eagles' album of the same name and was released as a single in early 1977. It is one of the best-known songs of the album-oriented rock era. Writing credits for the song are shared by Don Felder, Don Henley and Glenn Frey. The Eagles' original recording of the song features Henley singing the lead vocals and concludes with an extended section of electric guitar interplay between Felder and Joe Walsh. "Hotel California" topped the Billboard Hot 100 for one week in May 1977. Read more on Last.fm.