Hotel California Uke tab by The Eagles

Ukulele Tab without chords.

Add tab to your SongBook
Tablature / ChordsFont size: A- A A+

Don't know how to read a tab or a chord ? Check out these uke lessons:

Detailed guide to strumming and picking
How to read uke tabs
Reading chord diagrams

|--------------------------------------|----------------------------------|
|---5-2--------------------------------|--5--5x---------------------------|
|--6-2---------------------------------|----4-----------------------------|
|-4----6-------------------------------|-6-6------------------------------|
H P P S S S ~~~~ H S S
|----------------4-5-7---------7-------|---------5-4----------------------|
|----------------------2-2-3-2---2-----|------------------------2-0-------|
|--------------------------------------|----------------------------2-4---|
|---4-4-6-4-3-4------------------------|----2-4------0-2-2-4-2------------|

|--------------------------------------|----------------------------------|
|--------------------------------------|----------------------------------|
|--------------------------------------|----------------------------------|
|--------------------------------------|----------------------------------|

|----------------------------|-------------|-------------------------4----|
|-----3----------------------|-------------|----------------0--------2----|
|--4-4-----------------------|-------------|------------6-1---------------|
|-4-4--4---------------------|-------------|-------------------------3----|
P P S ~~
|-----2------2------2------2-|-------------|--------------------------------|
|---0--0---2--0---3--0------0|--3--0-3---0-|--3---6-----------------------|
|-------------------------2--|-4----4------|4-----------------------------|
|----0------2------4-----4---|---4----7----|----4---4-6-7--6-7--9--11--11---|

|----------------------------|-------------|------------------------------|
|----------------------------|-------------|------------------------------|
|----------------------------|-------------|------------------------------|
|----------------------------|-------------|------------------------------|

|---------------------------|--------------|------------------------------|
|---5-2---------------------|--------------|----5--5X---------------------|
|--6-2----------------------|--------------|------4-----------------------|
|-4----6--------------------|--------------|---6-6------------------------|
H P P S ~~ ~ P ~~
|-----------7-----7---5-----|-7-5---5------|----------5-4---4--4----------|
|-----2-3-2---2-2---2-------|--------------|------------------------------|
|---------------------------|--------------|------------------------- ----|
|---4-----------------------|-----4---2-4--|------2-4-----4------2--4-----|

|---------------------------|--------------|------------------------------|
|---------------------------|--------------|------------------------------|
|---------------------------|--------------|------------------------------|
|---------------------------|--------------|------------------------------|

|------------------------------------|------------------------------------|
|------------------------------------|------3-----------------------------|
|------------------------------------|---4-4------------------------------|
|------------------------------------|--4-4--4----------------------------|
H S
|--------7---------------------------|-------------2--------2--------2----|
|----------3--2-2-3-5----------------|--------0------0-2------0-3------0--|
|------2-----------------------------|------------------------------------|
|----6---------------4--6-7--6-7-----|--9--------0--------2--------4------|

|------------------------------------|------------------------------------|
|------------------------------------|------------------------------------|
|------------------------------------|------------------------------------|
|------------------------------------|------------------------------------|

|---------------------------------|-------4-------------------------------|
|---------------------------------|-----0--2------------------------------|
|---------------------------------|---61----------------------------------|
|---------------------------------|------3--------------------------------|
P H P S H P S
|--------2-------2----------------|---------------------------------------|
|----------0---0------------------|----------------------6--3-2-2--2-3-2--|
|------2--------------------------|---------------------------------------|
|----4-------4-----7--9--7--4-----|-----6-6-7--6-4-4-6-4------------------|

|---------------------------------|---------------------------------------|
|---------------------------------|---------------------------------------|
|---------------------------------|---------------------------------------|
|---------------------------------|---------------------------------------|

|--------------|
|--------------|
|--------------|
|--------------|

|-----5--4-----|
|-0-2----------|
|--------------|
|----------4-3-|

|--------------|
|--------------|
|--------------|
|--------------|

|-------2---------|-----2---4-6-|-----5-----5---|-------2-----|
|---0-------0-----|-------2-----|-------0-------|---0-------0-|
|-4---------------|-3-----------|-2-------------|-1-----------|
|-----0---0---0-2-|---2---------|---2-----2---2-|-----0---0---|

|-2---------------|-------------|-0-------------|-2-----------|
|-2---------------|-2-----------|-0-------------|-0-----------|
|-----------------|-1-----------|---------------|-------------|
|-4---------------|-3-----------|-2-------------|-1-----------|

|-2---------------|-------------|-0-------------|-2-----------|
|-2---------------|-2-----------|-0-------------|-0-----------|
|-----------------|-1-----------|---------------|-------------|
|-4---------------|-3-----------|-2-------------|-1-----------|
H
|-------3-----------|-2---2-----2---|-0-----3-------|-2-----2-----|
|---0-----0-0---0---|-------3-----3-|---0-------0---|-----------2-|
|-0-----------2-----|---------------|-------------4-|-------------|
|-----0-----------0-|---0-----0-----|-----0---0-----|---0-2---2---|

|-2-----------------|-0-------------|-2-------------|-------------|
|-3-----------------|-2-------------|-0-------------|-2-----------|
|-2-----------------|-2-------------|---------------|-1-----------|
|-0-----------------|-2-------------|-0-------------|-3-----------|

|-2-----------------|-0-------------|-2-------------|-------------|
|-3-----------------|-2-------------|-0-------------|-2-----------|
|-2-----------------|-2-------------|---------------|-1-----------|
|-0-----------------|-2-------------|-0-------------|-3-----------|

|-------2---------|-----2---4-6-|-----5-----5---|-------2-----|
|---0-------0-----|-------2-----|-------0-------|---0-------0-|
|-4---------------|-3-----------|-2-------------|-1-----------|
|-----0---0---0-2-|---2---------|---2-----2---2-|-----0---0---|
H P ~~~ S ~~~~
|-----------------|-------------|---------------|2------------|
|-----------0--2--|-0----0------|---------------|-------------|
|------2----------|----2---2--1-|-1------2---4--|-------------|
|-----------------|-------------|---------------|-------------|

|-2---------------|-------------|-0-------------|-2-----------|
|-2---------------|-2-----------|-0-------------|-0-----------|
|-----------------|-1-----------|---------------|-------------|
|-4---------------|-3-----------|-2-------------|-1-----------|
H
|-------3-----------|-2---2-----2---|-0-----3-------|-2-----2-----|
|---0-----0-0---0---|-------3-----3-|---0-------0---|-----------2-|
|-0-----------2-----|---------------|-------------4-|-------------|
|-----0-----------0-|---0-----0-----|-----0---0-----|---0-2---2---|
S P H P P
|-------------------|------4-6--2---|-4----6---7----|-6-7-6-4-6---|
|-------------------|---------------|---------------|-------------|
|-------------------|---------------|---------------|-------------|
|-2----4---------5--|0--------------|---------------|-------------|

|-2-----------------|-0-------------|-2-------------|-------------|
|-3-----------------|-2-------------|-0-------------|-2-----------|
|-2-----------------|-2-------------|---------------|-1-----------|
|-0-----------------|-2-------------|-0-------------|-3-----------|

|-------2---------|-----2---4-6-|-----5-----5---|-------2-----|
|---0-------0-----|-------2-----|-------0-------|---0-------0-|
|-4---------------|-3-----------|-2-------------|-1-----------|
|-----0---0---0-2-|---2---------|---2-----2---2-|-----0---0---|

|-2---------------|-------------|-0-------------|-2-----------|
|-2---------------|-2-----------|-0-------------|-0-----------|
|-----------------|-1-----------|---------------|-------------|
|-4---------------|-3-----------|-2-------------|-1-----------|

|-2---------------|-------------|-0-------------|-2-----------|
|-2---------------|-2-----------|-0-------------|-0-----------|
|-----------------|-1-----------|---------------|-------------|
|-4---------------|-3-----------|-2-------------|-1-----------|
H
|-------3-----------|-2---2-----2---|-0-----3-------|-2-----2-----|
|---0-----0-0---0---|-------3-----3-|---0-------0---|-----------2-|
|-0-----------2-----|---------------|-------------4-|-------------|
|-----0-----------0-|---0-----0-----|-----0---0-----|---0-2---2---|

|-2-----------------|-0-------------|-2-------------|-------------|
|-3-----------------|-2-------------|-0-------------|-2-----------|
|-2-----------------|-2-------------|---------------|-1-----------|
|-0-----------------|-2-------------|-0-------------|-3-----------|

|-2-----------------|-0-------------|-2-------------|-------------|
|-3-----------------|-2-------------|-0-------------|-2-----------|
|-2-----------------|-2-------------|---------------|-1-----------|
|-0-----------------|-2-------------|-0-------------|-3-----------|

|-------2---------|-----2---4-6-|-----5-----5---|-------2-----|
|---0-------0-----|-------2-----|-------0-------|---0-------0-|
|-4---------------|-3-----------|-2-------------|-1-----------|
|-----0---0---0-2-|---2---------|---2-----2---2-|-----0---0---|

|-2---------------|-------------|-0-------------|-2-----------|
|-2---------------|-2-----------|-0-------------|-0-----------|
|-----------------|-1-----------|---------------|-------------|
|-4---------------|-3-----------|-2-------------|-1-----------|

|-2---------------|-------------|-0-------------|-2-----------|
|-2---------------|-2-----------|-0-------------|-0-----------|
|-----------------|-1-----------|---------------|-------------|
|-4---------------|-3-----------|-2-------------|-1-----------|
H
|-------3-----------|-2---2-----2---|-0-----3-------|-2-----2-----|
|---0-----0-0---0---|-------3-----3-|---0-------0---|-----------2-|
|-0-----------2-----|---------------|-------------4-|-------------|
|-----0-----------0-|---0-----0-----|-----0---0-----|---0-2---2---|

|-2-----------------|-0-------------|-2-------------|-------1-2---|
|-3-----------------|-2-------------|-0-------------|-2-----------|
|-2-----------------|-2-------------|---------------|-1---6-----1-|
|-0-----------------|-2-------------|-0-------------|-3-----------|

|-2-----------------|-0-------------|-2-------------|-------------|
|-3-----------------|-2-------------|-0-------------|-2-----------|
|-2-----------------|-2-------------|---------------|-1-----------|
|-0-----------------|-2-------------|-0-------------|-3-----------|

|-3-----------------|-2--------------|-2-----------|-2------------|
|-0-----------------|-3--------------|-2-----------|-0------------|
|-4-----------------|-2--------------|-2-----------|--------------|
|-0-----------------|-0--------------|-2-----------|-0------------|

|-2-----------------|-0--------------|-------------|-2------------|
|-3-----------------|-2--------------|-2-----------|-2------------|
|-2-----------------|-2--------------|-1-----------|--------------|
|-0-----------------|-2--------------|-3-----------|-4------------|

|-3-----------------|-2--------------------|-2-----------|-2------|
|-0-----------------|-3--------------------|-2-----------|-0------|
|-4-----------------|-2--------------------|-2-----------|--------|
|-0-----------------|-0--------------------|-2-----------|-0------|
S S S
|-------------------|-6---6---4--4--4--4--9-9-9--|-------------|--------|
|-------------------|---------------5-5-5--|-------------|-2------|
|-------------------|----------------------|-------------|-1------|
|-------------------|-6--6--4-4-4-4--------|-------------|-3------|

|-2-----------------|-0--------------------|-2-----------|--------|
|-3-----------------|-2--------------------|-0-----------|-2------|
|-2-----------------|-2--------------------|-------------|-1------|
|-0-----------------|-2--------------------|-0-----------|-3------|

|-------2---------|-----2---4-6-|-----5-----5---|-------2-----|
|---0-------0-----|-------2-----|-------0-------|---0-------0-|
|-4---------------|-3-----------|-2-------------|-1-----------|
|-----0---0---0-2-|---2---------|---2-----2---2-|-----0---0---|

|-2---------------|-------------|-0-------------|-2-----------|
|-2---------------|-2-----------|-0-------------|-0-----------|
|-----------------|-1-----------|---------------|-------------|
|-4---------------|-3-----------|-2-------------|-1-----------|

|-2---------------|-------------|-0-------------|-2-----------|
|-2---------------|-2-----------|-0-------------|-0-----------|
|-----------------|-1-----------|---------------|-------------|
|-4---------------|-3-----------|-2-------------|-1-----------|
H
|-------3-----------|-2---2-----2---|-0-----3-------|-2-----2-----|
|---0-----0-0---0---|-------3-----3-|---0-------0---|-----------2-|
|-0-----------2-----|---------------|-------------4-|-------------|
|-----0-----------0-|---0-----0-----|-----0---0-----|---0-2---2---|

|-2-----------------|-0-------------|-2-------------|-------------|
|-3-----------------|-2-------------|-0-------------|-2-----------|
|-2-----------------|-2-------------|---------------|-1-----------|
|-0-----------------|-2-------------|-0-------------|-3-----------|

|-2-----------------|-0-------------|-2-------------|-------------|
|-3-----------------|-2-------------|-0-------------|-2-----------|
|-2-----------------|-2-------------|---------------|-1-----------|
|-0-----------------|-2-------------|-0-------------|-3-----------|

|-------2---------|-----2---4-6-|-----5-----5---|-------2-----|
|---0-------0-----|-------2-----|-------0-------|---0-------0-|
|-4---------------|-3-----------|-2-------------|-1-----------|
|-----0---0---0-2-|---2---------|---2-----2---2-|-----0---0---|

|-2---------------|-------------|-0-------------|-2-----------|
|-2---------------|-2-----------|-0-------------|-0-----------|
|-----------------|-1-----------|---------------|-------------|
|-4---------------|-3-----------|-2-------------|-1-----------|

|-2---------------|-------------|-0-------------|-2-----------|
|-2---------------|-2-----------|-0-------------|-0-----------|
|-----------------|-1-----------|---------------|-------------|
|-4---------------|-3-----------|-2-------------|-1-----------|
H
|-------3-----------|-2---2-----2---|-0-----3-------|-2-----2-----|
|---0-----0-0---0---|-------3-----3-|---0-------0---|-----------2-|
|-0-----------2-----|---------------|-------------4-|-------------|
|-----0-----------0-|---0-----0-----|-----0---0-----|---0-2---2---|

|-2-----------------|-0-------------|-2-------------|--------1-2--|
|-3-----------------|-2-------------|-0-------------|-2-----------|
|-2-----------------|-2-------------|---------------|-1----6-----1|
|-0-----------------|-2-------------|-0-------------|-3-----------|

|-2-----------------|-0-------------|-2-------------|-------------|
|-3-----------------|-2-------------|-0-------------|-2-----------|
|-2-----------------|-2-------------|---------------|-1-----------|
|-0-----------------|-2-------------|-0-------------|-3-----------|

|-3-----------------|-2-------------------|-2-----------|-2-------|
|-0-----------------|-3-------------------|-2-----------|-0-------|
|-4-----------------|-2-------------------|-2-----------|---------|
|-0-----------------|-0-------------------|-2-----------|-0-------|
S S S
|-------------------|-6---6---6---4--4--4--9-7--|---2---------|---------|
|-------------------|----------------5-5--|---------0-2-|---------|
|-2-(let ring)------|---------------------|-----1-2-----|---------|
|-0-(let ring)------|-6--6--6--4-4-4------|-------------|-0-------|

|-2-----------------|-0-------------------|-------------|-2-------|
|-3-----------------|-2-------------------|-2-----------|-2-------|
|-2-----------------|-2-------------------|-1-----------|---------|
|-0-----------------|-2-------------------|-3-----------|-4-------|

|-3-----------------|-2----------------|-2-----------|-2----------|
|-0-----------------|-3----------------|-2-----------|-0----------|
|-4-----------------|-2----------------|-2-----------|------------|
|-0-----------------|-0----------------|-2-----------|-0----------|
S S S
|-------------------|-4--4--4--9-9-9-5-5--|-------------|------------|
|-------------------|-------5-5-5-2----|-------------|-2----------|
|-------------------|------------------|-------------|-1----------|
|-------------------|-4-4-4---------2--|-------------|-3----------|

|-2-----------------|-0----------------|-2-----------|------------|
|-3-----------------|-2----------------|-0-----------|-2----------|
|-2-----------------|-2----------------|-------------|-1----------|
|-0-----------------|-2----------------|-0-----------|-3----------|

|-------2---------|-----2---4-6-|-----5-----5---|-------2-----|
|---0-------0-----|-------2-----|-------0-------|---0-------0-|
|-4---------------|-3-----------|-2-------------|-1-----------|
|-----0---0---0-2-|---2---------|---2-----2---2-|-----0---0---|

|-2---------------|-------------|-0-------------|-2-----------|
|-2---------------|-2-----------|-0-------------|-0-----------|
|-----------------|-1-----------|---------------|-------------|
|-4---------------|-3-----------|-2-------------|-1-----------|

|-2---------------|-------------|-0-------------|-2-----------|
|-2---------------|-2-----------|-0-------------|-0-----------|
|-----------------|-1-----------|---------------|-------------|
|-4---------------|-3-----------|-2-------------|-1-----------|
H
|-------3-----------|-2---2-----2---|-0-----3-------|-2-----2-----|
|---0-----0-0---0---|-------3-----3-|---0-------0---|-----------2-|
|-0-----------2-----|---------------|-------------4-|-------------|
|-----0-----------0-|---0-----0-----|-----0---0-----|---0-2---2---|

|-2-----------------|-0-------------|-2-------------|-------------|
|-3-----------------|-2-------------|-0-------------|-2-----------|
|-2-----------------|-2-------------|---------------|-1-----------|
|-0-----------------|-2-------------|-0-------------|-3-----------|

|-2-----------------|-0-------------|-2-------------|-------------|
|-3-----------------|-2-------------|-0-------------|-2-----------|
|-2-----------------|-2-------------|---------------|-1-----------|
|-0-----------------|-2-------------|-0-------------|-3-----------|

|-------2---------|-----2---4-6-|-----5-----5---|-------2-----|
|---0-------0-----|-------2-----|-------0-------|---0-------0-|
|-4---------------|-3-----------|-2-------------|-1-----------|
|-----0---0---0-2-|---2---------|---2-----2---2-|-----0---0---|

|-2---------------|-------------|-0-------------|-2-----------|
|-2---------------|-2-----------|-0-------------|-0-----------|
|-----------------|-1-----------|---------------|-------------|
|-4---------------|-3-----------|-2-------------|-1-----------|

|-2---------------|-------------|-0-------------|-2-----------|
|-2---------------|-2-----------|-0-------------|-0-----------|
|-----------------|-1-----------|---------------|-------------|
|-4---------------|-3-----------|-2-------------|-1-----------|
H
|-------3-----------|-2---2-----2---|-0-----3-------|-2-----2-----|
|---0-----0-0---0---|-------3-----3-|---0-------0---|-----------2-|
|-0-----------2-----|---------------|-------------4-|-------------|
|-----0-----------0-|---0-----0-----|-----0---0-----|---0-2---2---|

|-2-----------------|-0-------------|-2-------------|-------------|
|-3-----------------|-2-------------|-0-------------|-2-----------|
|-2-----------------|-2-------------|---------------|-1-----------|
|-0-----------------|-2-------------|-0-------------|-3-----------|

|-2-----------------|-0-------------|-2-------------|-------------|
|-3-----------------|-2-------------|-0-------------|-2-----6-4---|
|-2-----------------|-2-------------|---------------|-1---------4-|
|-0-----------------|-2-------------|-0-------------|-3-----------|

|-------2-------------|-----2---4-6---|--------------5------------5-------|
|---0-------0---------|-------2-------|-----------------0-----------------|
|-4-------------------|-3-------------|----2------------------------------|
|-----0---0---0-2-----|---2-----------|---------2-----------2---------2---|

|-2-------------------|---------------|-0---------------------------------|
|-2-------------------|-2-------------|-0---------------------------------|
|---------------------|-1-------------|-----------------------------------|
|-4-------------------|-3-------------|-2---------------------------------|
S ~
|---------------------|---------------|-----------------------------------|
|---------------------|---5-3-2-------|--------------------------------5--|
|4--4-4-4-4-2---4-2---|-2-------------|-----------------------------------|
|-------------6-----6-|-4-6-4-3--6-7--|-9--9--9--9--9--7--6-4--7--6-4-----|

|-------2-----|
|---0-------0-|
|-1-----------|
|-----0---0---|

|-2-----------|
|-0-----------|
|-------------|
|-1-----------|
H
|-------------|
|-4-------4---|
|---4---6----6|
|-----4-------|
H
|---------3----------------|-2---2-----2---|--0--------3-----------|
|----0-------0-0----0------|-------3-----3-|-----0-----------0-----|
|-0---------------2--------|---------------|--------------------4--|
|-------0--------------0---|---0-----0-----|--------0-----0--------|

|-2------------------------|-0-------------|-2---------------------|
|-3------------------------|-2-------------|-0---------------------|
|-2------------------------|-2-------------|-----------------------|
|-0------------------------|-2-------------|-0---------------------|
S
|---0-2--------------------|---------------|--2------2------2----2-|
|-3---------0---2-0-3-2----|------------2--|-0--0---0--0---0--0--0-|
|-------2-1---2------------|---------------|-----------------------|
|-----------------------2-4|-2-------4-----|---0------0------0---0-|

|-2-----2---------------|
|-----------2-----------|
|-----------------------|
|---0-2---2-------------|
H P S
|-----------------------|
|--------6--------------|
|------------------4-6--|
|-4-6--4---4-6--7-------|

|----4------4-----------|
|---2--2--2-2-----------|
|-6-----16--------------|
|-----3-----------------|

|-------2----------------------------------------------|
|---0--------0-----------------------------------------|
|-4----------------------------------------------------|
|-----0----0----0-2------------------------------------|
H P S H P S H P S H P S
|------------------------------------------------------|
|---3----------------------3---------------------------|
|6-----6--4-6-----4--6--6-----6--4-4-6--4-2-2-4-2------|
|--------------7----------------------------------6--4-|

|-2----------------------------------------------------|
|-2----------------------------------------------------|
|------------------------------------------------------|
|-4----------------------------------------------------|

|---------2-----4--6-----------|
|------------2-----------------|
|--3---------------------------|
|-----2------------------------|
S
|-------------------------------|
|-6----------------6---------5-|
|-----4------------------------|
|---6---4--6--4-------11---7----|

|------------------------------|
|-2----------------------------|
|-1----------------------------|
|-3----------------------------|

|-----5-----5-----------|-------2----------------------|
|-------0---------------|---0-------0------------------|
|-2---------------------|-1----------------------------|
|---2-----2---2---------|-----0---0--------------------|
H P S H P S
|-------7-7-7-----------|--5-5-7-5-4-4-5-4-2-----------|
|-2-2-2-----------------|------------------------0-0-2-|
|-------------2-2-------|------------------------------|
|-----------------6-4-2-|1-------------------2-1-------|

|-0---------------------|-2----------------------------|
|-0---------------------|-0----------------------------|
|-----------------------|------------------------------|
|-2---------------------|-1----------------------------|
H
|----------3-------------------------|-2---2-----2---------------------------|
|------0-----0-0---0-----------------|-------3-----3-------------------------|
|----0-----------2-------------------|---------------------------------------|
|--------0-----------0---------------|---0-----0-----------------------------|
H P S H P S S S S H H H H H H H H
|------------------------------5-7---|--9-9-9-9-4--9-7-9----------------2-4-5-|
|----3-5-3-2-3---------------------3-|--5-5-5-5---5-3-5--0-1-2---------------|
|------------------------------------|-----------------2---------------------|
|--------------2-4-4-6-4-3-4-6-------|----------4--------------0-1-2-3-------|

|----2-------------------------------|-0-------------------------------------|
|----3-------------------------------|-2-------------------------------------|
|----2-------------------------------|-2-------------------------------------|
|----0-------------------------------|-2-------------------------------------|

|-0-----3----------------------------|-2-----2-------------------------------|
|---0-------0------------------------|-----------2---------------------------|
|-------------4----------------------|---------------------------------------|
|-----0---0--------------------------|---0-2---2-----------------------------|
P P P P S H P S H H P P P
|---2-------2------------------------|-----------5-------5-4-5-4-2-4-5-4-5---|
|-0-----3-0-----3-0------6-----------|-2-2-3-2-0---0-2-0-------------------0-|
|------------------------------------|---------------------------------------|
|-----0-------4-----7--4----9--7--4--|---------------------------------------|
P
|-2----------------------------------|---------------------------------------|
|-0----------------------------------|-2-------------------------------6-----|
|------------------------------------|-1-------------------------------------|
|-0----------------------------------|-3-----------------------------4---4-6-|

|-------2-----------------------|-----2---4-6--------|-----5-----5---------------|
|---0-------0-------------------|-------2------------|-------0-------------------|
|-4-----------------------------|-3------------------|-2-------------------------|
|-----0---0---0-2---------------|---2----------------|---2-----2---2-------------|
S
|---5-----5-----5-----5-----5---|---4-----4-----4----|---4----4----4----4----4---|
|-2-----2-----2-----2-----2-----|-0-----0-----0----6-|-0----0----0----0----0-----|
|-------------------------------|--------------------|---------------------------|
|-----4-----4-----4-----4-----4-|-----3-----3--------|-----2----2----2----2----2-|
P P P P P P P P S P P P P P
|-------------------------------|---------------------|----7----7----7----7-----7-|
|-----2-----2-----2-----2-----2-|---6-2---6-2---6----|---5----5----5----5----5---|
|-------------------------------|--------------------|---------------------------|
|-7--4--7--4--7--4--7--4--7--4--|-6-----6-----6---11--|-6----6----6----6----6-----|

|-----5-----5---------------|
|-------0-------------------|
|-2-------------------------|
|---2-----2---2-------------|

|---4----4----4----4----4---|
|-0----0----0----0----0-----|
|---------------------------|
|-----2----2----2----2----2-|
P P P P P
|----7----7----7----7-----7-|
|---5----5----5----5----5---|
|---------------------------|
|-6----6----6----6----6-----|
H
|-------2-----------|-------3-----------------------|-2---2-----2--------|
|---0-------0-------|---0-----0-0---0---------------|-------3-----3------|
|-1-----------------|-0-----------2-----------------|--------------------|
|-----0---0---------|-----0-----------0-------------|---0-----0----------|
P P P S P P P P P S
|-5-2---5-2---5-2---|-5-2---5-2---5-2---5-2---5-2---|-5-----5-----5------|
|-----------------4-|-------------------------------|-----2-----2------2-|
|-------------------|-------------------------------|--------------------|
|-----1-----1-------|-----0-----0-----0-----0-----0-|---2-----2-----2----|
P P P S P P P P P P P S
|----7----7---------|-----5-----5-----5-----5-----5-|-----5-----5--------|
|---4-----4-----4---|---3-----3-----3-----3-----3---|-5-2---5-2---5------|
|-------------------|-------------------------------|--------------------|
|-4-----4-----4---9-|-4-----4-----4-----4-----4-----|----------------7---|

|-0-----3--------------------------|--2-----2-----------------------|-2-|
|---0-------0----------------------|------------2-------------------|-0-|
|-------------4--------------------|--------------------------------|---|
|-----0---0------------------------|----0-2---2---------------------|-0-|
H H P
|-2----2----2----2----2------------|--4----5------4----5---5-4--2---|-2-|
|-----0----0----0----0----0--------|------2----20----2--------------|-2-|
|----------------------------------|--------------------------------|---|
|---0----0----0----0----0---0-3-4--|----3----4------3----4----3-----|-4-|
P P P P P H
|----2----2----2----2----2----4-5--|----4----5----------------------|---|
|-3-0--3-0--3-0--3-0--3-0----------|--0----2----6-2----2-------2-6--|-7-|
|----------------------------------|----------------4----2-2-4------|-6-|
|----------------------------------|------3----4-----4--------------|-7-|

 

Tab comments (1)
You must be logged in to join the discussion
or Register

 

rororora avatar
I feel like it would be clear and easy to play if it weren't...all over the place. Maybe the next time you try writing out a tab, don't be afraid of making it longer and making clear spacing so the song is easier to play! Good job though! :)
18 Oct 2020
About this song

Hotel California is the title song from the Eagles' album of the same name and was released as a single in early 1977. It is one of the best-known songs of the album-oriented rock era. Writing credits for the song are shared by Don Felder, Don Henley, Gaute Huus and Glenn Frey. The Eagles' original recording of the song features Henley singing the lead vocals and concludes with an extended section of electric guitar interplay between Felder and Joe Walsh. "Hotel California" topped the Billboard Hot 100 for one week in May 1977.