Hotel California (Intro) Uke tab by The Eagles

1 Chords used in the song:

Add tab to your SongBook
Tablature / ChordsFont size: A- A A+

Don't know how to read a tab or a chord ? Check out these uke lessons:

Detailed guide to strumming and picking
How to read uke tabs
Reading chord diagrams

A: ---------2--------2--5--7-----4--1-----4-----1--0-----0--0
E: ------2-----2--------------6--------2-----2--------0------
C: 6--2-----------2-----2--4--6------------------------------
G: ----------------------------------------------------------

A: --2--0--0-----0--0--2--------2-----2--------2--2--2-----2
E: -----------0-----------2--2-----------2--------3---------
C: --------------------------2-----2--------2-----2-----2---
G: ---------------------------------------------------------

A: --------2--------2--5-----5--------5--------5--------5--1
E: --3--------3--5--------5-----2--2-----2--2-----5---------
C: -----2--------------------------------------------2------
G: ---------------------------------------------------------

A: -----2-----2--------2--2-----------4-----4--1-----4--2--2
E: --0-----0-----3--3--------3--3--2-----2--------2-----2---
C: -----------------------------------------------------2---
G: ---------------------------------------------------------

A: -----2--------2--2-----------1--4--1-----4-----1--0-----0
E: --2-----2--2--------2-----0--2--------2-----2--------0---
C: -----------------------2---------------------------------
G: ---------------------------------------------------------

A: --0--2--0--0-----0--0--2-----2--------2-----2--2--2--2---
E: --------------0-----------2--2--2-----------------3------
C: -----------------------------2-----2-----2--------2-----2
G: ---------------------------------------------------------

A: --2--------2--------2--5-----5--------5--------0--------0
E: -----3--------3--5--------5-----2--2-----2--2-----2------
C: --------2--------------------------------------------2---
G: ---------------------------------------------------------

A: --------2-----2--------2--2-----------4-----4--1-----4--
E: -----0-----0-----3--3--------3--3--2-----2--------2-----
C: --2-----------------------------------------------------
G: --------------------------------------------------------

 

Tab comments (0)
No comment yet :(
Need help, a tip to share, or simply want to talk about this song? Start the discussion!

You must be logged in to join the discussion
or Register

 

About this song

Hotel California is the title song from the Eagles' album of the same name and was released as a single in early 1977. It is one of the best-known songs of the album-oriented rock era. Writing credits for the song are shared by Don Felder, Don Henley and Glenn Frey. The Eagles' original recording of the song features Henley singing the lead vocals and concludes with an extended section of electric guitar interplay between Felder and Joe Walsh. "Hotel California" topped the Billboard Hot 100 for one week in May 1977.