Something Uke tab by The Beatles

12 Chords used in the song: C, Cmaj7, C7, F, D7, G, Am, AmM7, A, F#m, D, Am7

8.9/10
PrintAdd tab to your SongBook

Tablature / Chords (Full Song)

Font size: A- A A+

Artist: 
Album: 
Year:  1969
Difficulty: 
2.59
(Beginner)
Key: unknownChords and Tablature
C C                        Cmaj7 Cmaj7
something in the way she moves
C7 C7 F F
Attracts me like no other lover
D7 D7 G G
Something the way she woos me
Am Am AmM7 AmM7
I don't wanna leave her now
C C D7 D7
You know I believe in how

A|-0-3-0-1-2------------------------------|
E|----------------------------------------|
C|----------------------------------------|
G|----------------------------------------|

C C Cmaj7 Cmaj7
Somewhere in her smile she knows
C7 C7 F F
That I don't need no other lover
D7 D7 G G
Something in her style that shows me
Am Am AmM7 AmM7
I don't wanna leave her now
C C D7 D7
You know I believe in how

A|-0-3-0-1-2------------------------------|
E|----------------------------------------|
C|----------------------------------------|
G|----------------------------------------|

A A

A A F#m F#m
You're asking me will my love grow
D D G G A A
I don't know I don't know
A A F#m F#m
You stick around now it my show
D D G G A A
I don't know I don't know

A|-0-3-0-1-2------------------------------|
E|----------------------------------------|
C|----------------------------------------|
G|----------------------------------------|

C C
Cmaj7 Cmaj7
C7 C7
F F
D D
D7 D7
G G
Am Am
AmM7 AmM7
Am7 Am7
D7 D7

A|-0-3-0-1-2------------------------------|
E|----------------------------------------|
C|----------------------------------------|
G|----------------------------------------|

C C Cmaj7 Cmaj7
Something in the way she knows
C7 C7 F F
And all I have to do is think of her
D7 D7 G G
Something in the things she shows me
Am Am AmM7 AmM7
I don't wanna leave her now
C C D7 D7
You know I believe in how

A|-0-3-0-1-2-4---10-8-9---0-3-0-1-2-------|
E|----------------------------------------|
C|----------------------------------------|
G|----------------------------------------|

C C

⇢ Not happy with this tab? View 8 other version(s)

Uke tab by , 09 Feb 2019

Tab comments (0)

No comment yet :(
Need help, a tip to share, or simply want to talk about this song? Start the discussion!

Something to say?
Share your strumming patterns, chords or tips to play this tab! ;)

Top Tabs & Chords by The Beatles, don't miss these songs!

About this song: Something

"Something" is a song released by The Beatles in 1969. It was featured on the album Abbey Road, and was also the first song written by George Harrison to appear on the A-side of a Beatles single. It was one of the first Beatles singles to contain tracks already available on a long playing (LP) album, with both "Something" and "Come Together" having appeared on Abbey Road. "Something" was the only Harrison composition to top the American charts while he was in The Beatles. Read more on Last.fm.

Did you cover Something on your Ukulele? Share your work!
Submit a cover