Let It Be Perfect Solo Uke tab by The Beatles

Ukulele Tab without chords.

Rate song!
PrintAdd tab to your SongBook

Tablature / Chords (

Font size: A- A A+

Artist: 
Album:  unknown
Key: unknownTablature (no chords)
H      S       S                                        
A ---------------------------------------------------------
E -3-5-3--------------3-3---3----3-5-----------------------
C --------4-2-0---2-4-----2--*---------2---2---------------
G -5---5-----------------------------5--^-^--5*------------
S S S
A -----------------------------------------------------------
E ----------------5------5-3-5-3-----------------------------
C --4--4-2---2-2-----2-----------4-2-0-2-0-------------------
G ----5----5----^---^--5-------------------------------------
S S S
A ---------------------------------------------------------
E --3-5-----5-------3----3----3-5--------------------------
C ----------------4----4----4------------------------------
G ------5-5---5--------------------------------------------

A ---------------------------------------------------------------
E -3-5------^---^-----------------^-----------------------------
C --------------------------------------------------------------
G ------5-7---7---5-7--5-----5--12----7---5--7--5--7---5--7--5---

Uke tab by , 22 Aug 2013

Tab comments (0)

No comment yet :(
Need help, a tip to share, or simply want to talk about this song? Start the discussion!

Something to say?
Share your strumming patterns, chords or tips to play this tab! ;)

Top Tabs & Chords by The Beatles, don't miss these songs!

About this song: Let It Be Perfect Solo

No information about this song.

Did you cover Let It Be Perfect Solo on your Ukulele? Share your work!
Submit a cover