Hey Jude (Riff) Uke tab by The Beatles

Ukulele Tab without chords.

Add tab to your SongBook
Tablature / ChordsFont size: A- A A+

Don't know how to read a tab or a chord ? Check out these uke lessons:

Detailed guide to strumming and picking
How to read uke tabs
Reading chord diagrams

G|-----------------------------------------------------------------------|
C|-----------------------------------------------------------------------|
E|------------------3------3---------------------------------------------|
A|--3--0-----0-3-5-----------0-1--8--8-7-3-5-3-------3-5*5--5-10-8-7-8-5-|



G|------------------------------------|
C|------------------------------------|
E|--------1-3---------------0-1-------|
A|-3----------0-5\3---3-1-0-----------|

 

Tab comments (2)
You must be logged in to join the discussion
or Register

 

esulli1219 avatar
flag for US(ISO2) (Tallahassee)
This is such a great tab! It's exactly what I was looking for! Thanks!
26 Dec 2012
kobeshane avatar
flag for US(ISO2) (San Pedro)
Great tab,thanks!
25 Jun 2012
About this song

"Hey Jude" is a song by the English rock band The Beatles that was recorded in 1968. Originally titled "Hey Jules", the ballad was written by Paul McCartney