Here Comes The Sun Uke tab by The Beatles

Ukulele Tab without chords.

10/10
PrintAdd tab to your SongBook

Tablature / Chords (Full Song)

Font size: A- A A+

Artist: 
Album:  unknown
Key: unknownTablature (no chords)
A|-2---0-2---2-0---0---0---0-------0--|
E|-3-3-----3-----3-0-3---3-2-0-2-3----|
C|-2---------------0-------0----------|
G|------------------------------------|

A|-2-2---0-2-0-2-0---0-2-0---0--|
E|-3---3-----3-----3-0-----3-2--|
C|-2---------0-------0-------0--|
G|------------------------------|

A|-2-2-0-2---2---0-2-0-2-0-2-0-2-2-0----|
E|-3-------3---3-----0-------3-3-----3--|
C|-2-----------------0-------1-2--------|
G|--------------------------------------|

A|-----0-----0-----0-----0--------|
E|---3-----3-----3-----3---3-2-0--|
C|-4-----2-----0-----2------------|
G|--------------------------------|

A|-2-2---0-2-0-------0--|
E|-3---3-----2-0-2-3----|
C|-2---------0----------|
G|----------------------|

⇢ Not happy with this tab? View 26 other version(s)

Uke tab by , 24 Aug 2018

Tab comments (0)

No comment yet :(
Need help, a tip to share, or simply want to talk about this song? Start the discussion!

Something to say?
Share your strumming patterns, chords or tips to play this tab! ;)

Top Tabs & Chords by The Beatles, don't miss these songs!

About this song: Here Comes The Sun

No information about this song.

Did you cover Here Comes The Sun on your Ukulele? Share your work!
Submit a cover