Here Comes The Sun Uke tab by The Beatles

Ukulele Tab without chords.

7.4/10
PrintAdd tab to your SongBook

Tablature / Chords (

Font size: A- A A+

Artist: 
Album: 
Year:  1969
Key: unknownTablature (no chords)
A|--2---0-2--2-0-----2-0-------------------------|
E|3---3----3-----3-0-----3-2---------------------|
C|2----------------------------------------|
G|----------------------------------------|



A|2-0-2---2---0-2-2-0-2---0---2-0---------------------|
E|------3---3-----------3---3-----3------------|
C|----------------------------------------|
G|----------------------------------------|

⇢ Not happy with this tab? View 26 other version(s)

Uke tab by , 31 Dec 2013

Tab comments (1)

Something to say?
Share your strumming patterns, chords or tips to play this tab! ;)
Filter by:
ukedook avatar
nice :)
31 Dec 2012
Comment

Top Tabs & Chords by The Beatles, don't miss these songs!

About this song: Here Comes The Sun

No information about this song.

Did you cover Here Comes The Sun on your Ukulele? Share your work!
Submit a cover