Here Comes The Sun (george Harrison) Uke tab by The Beatles

Ukulele Tab without chords.

Add tab to your SongBook
Tablature / ChordsFont size: A- A A+

Don't know how to read a tab or a chord ? Check out these uke lessons:

Detailed guide to strumming and picking
How to read uke tabs
Reading chord diagrams

A|-2-----2--0--2------2--0-----------0-----------|
E|-3--3------------3--------3-----3--0--3--2--0----|
C|-2---------------------------4------------|
G|(0)--------------------------------------|

A|--------0-----2-----2--0--2-----2--0-----------|
E|--2--3--2-----3--3-----------3--------3--------|
C|--------------2-------------------------4-|
G|----------------------------------------|


A|--2--0-----0-------------------------------|
E|--------3--2------------------------------|
C|-----------0-----------------------------|
G|-----------2-----------------------------|


A|-2----2--0--2----2-----0--2----2--0--2--0----------|
E|-3--3---------3-----3-------------------3----|
C|-2--------------------------4-----------1--|
G|----------------------------------------2|

A|-2--0-----------0-------0-------0------------|
E|-------3-----3-------3-------3-----3--2--0--2---|
C|----------4-------2-------0----------------|
G|----------------------------------------|

A|--0-------------------------0----3---5--2----|
E|--2------2---0--2--3--2--3--2-----------3--------|
C|--0-------------------------------------2-|
G|--2------0-----------------------------(0)--|

 

Tab comments (1)
You must be logged in to join the discussion
or Register

 

Carrie_g avatar
Great tab! ??
27 Aug 2017
About this song

No information about this song.