Here Comes The Sun (vocal Part) Uke tab by The Beatles

Ukulele Tab without chords.

Add tab to your SongBook
Tablature / ChordsFont size: A- A A+

Don't know how to read a tab or a chord ? Check out these uke lessons:

Detailed guide to strumming and picking
How to read uke tabs
Reading chord diagrams

Here comes the sun
Here comes the sun, and I say
It's all right

A|-4-2-4-0--4-2-4-0---4-2-0--4-2-0--------|
E|------------------2---------------------|
C|----------------------------------------|
G|----------------------------------------|


Little darling
It's been a long, cold lonely winter

A|-4-0-2-4--4-2-0---0-4p2p0---------------|
E|----------------2----------2-0----------|
C|----------------------------------------|
G|----------------------------------------|


Little darling
It feels like years since it's been here

A|-4-0-2-4--4-2-0---4-2-0-----------------|
E|----------------2-------4---------------|
C|----------------------------------------|
G|----------------------------------------|


Here comes the sun
Here comes the sun, and I say
It's all right

A|-4-2-4-0--4-2-4-0---4-2-0--4-2-0--------|
E|------------------2---------------------|
C|----------------------------------------|
G|----------------------------------------|


Little darling
The smiles returning to the faces

A|-4-0-2-4--4-2-0---0-2-0-----------------|
E|----------------2-------2-0-------------|
C|----------------------------------------|
G|----------------------------------------|


Little darling
It seems like years since it's been here

A|-4-0-2-4--4-2-0---4-2-0----------------|
E|----------------2-------4---------------|
C|----------------------------------------|
G|----------------------------------------|


Here comes the sun
Here comes the sun, and I say
It's all right

A|-4-2-4-0--4-2-4-0---4-2-0--4-2-0--------|
E|------------------2---------------------|
C|----------------------------------------|
G|----------------------------------------|


Sun, sun, sun, here it comes
Sun, sun, sun, here it comes
Sun, sun, sun, here it comes
Sun, sun, sun, here it comes
Sun, sun, sun, here it comes

A|-3-2-0---0-2-0-------------------------|
E|-------2-------------------------------|
C|---------------------------------------|
G|---------------------------------------| x5


Little darling
I feel that ice is slowly melting

A|-4-0-2-4--4-2-0---0-4p2p0-------------|
E|----------------2----------2-0--------|
C|--------------------------------------|
G|--------------------------------------|


Little darling
It seems like years since it's been clear

A|-4-0-2-4--4-2-0---4-2-0---------------|
E|----------------2-------4-------------|
C|--------------------------------------|
G|--------------------------------------|


Here comes the sun
Here comes the sun, and I say
It's all right

A|-4-2-4-0--4-2-4-0---4-2-0--4-2-0--------|
E|------------------2---------------------|
C|----------------------------------------|
G|----------------------------------------|

Here comes the sun
Here comes the sun
It's all right
It's all right

A|-4-2-4-0--4-2-4-0--4-2-0--4-2-0--------|
E|---------------------------------------|
C|---------------------------------------|
G|---------------------------------------|

 

Tab comments (1)
You must be logged in to join the discussion
or Register

 

stormcarver avatar
flag for US(ISO2) (Jacksonville)
useful? not really
29 Jul 2013
About this song

"Here Comes the Sun" is a song by George Harrison from The Beatles' 1969 album Abbey Road. The song, one of Harrison's best-known Beatles contributions alongside "Something", originated from a songwriting collaboration between Harrison and close friend Eric Clapton called "Badge," recorded by Clapton's group Cream, and featuring an arpeggiated guitar riff that is similar to the one that forms the bridge of "Here Comes the Sun". 1969 was a difficult year for Harrison: he was arrested for marijuana possession, he had his tonsils removed, and he had temporarily quit the band.